Drake - Forever Solo Chords & Tabs

 

Drake Chords & Tabs

Version: 1 Type: Tab 0 ratings
1 star 2 stars 3 stars 4 stars 5 stars
comments

Forever Solo Tab

So basically this is the part where Drake is singing. This song is played with only the 
second, and third strings. And I broke it up into 4 sections to make it easier to read .
so here it goes ....

e|-----6--------------6--6----------------------------|
b|--------8--6--------------8--6--------6--8--6-------|
g|--5-----------8--5--------------8--5----------------|
d|----------------------------------------------------|
a|----------------------------------------------------|
E|----------------------------------------------------|

[ Tab from: http://www.guitartabs.cc/tabs/d/drake/forever_solo_tab.html ]
e|-----6-----------------------4-----------------------|
b|--------8--6--------6--4--8-----8--6--4--5--6--------|
g|--5-----------8--5-----------------------------------|
d|-----------------------------------------------------|
a|-----------------------------------------------------|
E|-----------------------------------------------------|


e|-----6--------------------6--------------------6------|
b|--------8--6--------6--8-----8--6--------6--8---------|
g|--5-----------8--5-----------------8--5---------------|
d|------------------------------------------------------|
a|------------------------------------------------------|
E|------------------------------------------------------|

e|--6-----------------------4---------------------------|
b|-----8--6--------6--4--8-----8--6--4--5--6------------|
g|-----------8--5---------------------------------------|
d|------------------------------------------------------|
a|------------------------------------------------------|
E|------------------------------------------------------|
Comments