Drained - Homework Chords & Tabs

 

Homework Chords & Tabs

Drained Chords & Tabs

Version: 2 Type: Bass Tab 0 ratings
1 star 2 stars 3 stars 4 stars 5 stars
comments

Homework Bass Tab

Song: Homework 
Band: Drained 
Tabbed By: Paul Harrison 
  

Intro: 
G------------------------------------------------ 
D------------------------------------------------ 
A-----0--3--0--3----------------5--3--2------            4x 
E-----------------------0--3--0----------------- 
[ Tab from: http://www.guitartabs.cc/tabs/d/drained/homework_btab_ver_2.html ]
Verse: 
G-------------------------------------------------------------------------------- 
D-------------------------------------------------------------------------------- 
A-------------------------------------------------------------5--5---3--3--3---      8x 
E---5--5--5--5--5----0--0--0--0--0----3--3--3--3--3----------------------- 

play 1/2 speed 4x for chorus 

Bass Solo: 
G--------------------------------------------------------------------------------- 
D--------------------------------------------------------------------------------- 
A---3--2-----------3--2-----5----3--2-----------3--2-----5--3--2--3---------        2x 
E----------3--5-----------3--------------3--5-----------3----------------3--5-- 

Order: 
Intro 
Verse 
Chorus 
Verse 
Chorus 
Bass Solo 
Verse 
Chorus 
Comments