Drain Sth - Serve The Shame Chords & Tabs

 

Serve The Shame Chords & Tabs

Drain Sth Chords & Tabs

Version: 1 Type: Tab 0 ratings
1 star 2 stars 3 stars 4 stars 5 stars
comments

Serve The Shame Tab

   
        Song is played in D,G,C,F,A,D




         Main Riff
D [--------------------------------------------------------------------------------------------------]
A [--------------------------------------------------------------------------------------------------]
F [--------------------------------------------------------------------------------------------------]
C [--7/9-9-9-7-7-9-9---7/9-9-9-7-7-910---7/9-9-9-7-7-9-9---7/9-9-9-7-7-910-----------]  
G [--5/7-7-7-5-5-7-7---5/7-7-7-5-5-7-8---5/7-7-7-5-5-7-7---5/7-7-7-5-5-7-8------------]
D [--------------------------------------------------------------------------------------------------]

	Repeat Main Riff
	(Guitar 2)
D [--------------------------------]
A [--------------------------------]
F [----1-2-1-------------1-2-1---]
C [--2------------------2---------]
G [--------------------------------]
D [--------------------------------]

	(Clean Tone before main riff)
D [----------]
A [-----9---]
F [----9-9--]
C [--7------]
G [---------]
D [---------]

	Pre-Chorus
D [---------------------------------------------------------------]
A [---------------------------------------------------------------]
F [---------------------------------------------------------------]
C [---------------------------------------------------------------]
G [--5---7-----3-2-2-3-2-2-3----5---7-----3-2-2-3-2-2-3--]
D [--3---5-----1-0-0-1-0-0-1----3---5-----1-0-0-1-0-0-1--]
                 pm     .  .      .  .                            .  .      .  .

	Chorus
D [-----------------------------]
A [-----------------------------]
F [-----------------------------]
C [-----------------------------]
G [--2---5---7----8-7-7-8---]
D [--0---3---5----6-5-5-6---]
                      pm    .   .

 	Main Riff
	

[ Tab from: http://www.guitartabs.cc/tabs/d/drain_sth/serve_the_shame_tab.html ]
	(Guitar 2)
D [-------------------------]
A [-------------------------]
F [----1-2-1------1-2-4---]
C [--2-----------2---------]
G [-------------------------]
D [-------------------------]

	Verse 2 before Main Riff
D [--9---9---9---9-----]
A [---9---9---9---9----]
F [-----9---9---9---9--]
C [----------------------]
G [----------------------]
D [----------------------]

	Guitar Solo   (attempted)
D [-------------------------------------------------------------------------------------------------------]
A [----------------------------------------------------12-12b12-----------12----------------------]
F [--5-7-9-9-7-9~---7h9-9-9-7-7-6-6-6/7-7-7/9--------------12-14~15-15-14-12-12-14-16~]
C [-----------------------------------------------------------------------------------------15-----------]
G [-------------------------------------------------------------------------------------------------------]
D [-------------------------------------------------------------------------------------------------------]

D [-------------------------------------------------------------------------------------------------------]
A [--17b-15--------------------------------------------------------------------------------------------]
F [-----------12~ --12h14-14-14-16-16-14-14---7h9-9~ 7-7-6-6-6h7-7/9-9-10-9-7-9--7\6--]
C [---------------------------------------------14-------------------------------------------------------]
G [-------------------------------------------------------------------------------------------------------]
D [-------------------------------------------------------------------------------------------------------]

D [------------------------------------------------------------------]
A [--17b-15-------------------17b-15---------17b-17b-17~ --]
F [-----------16~ --14b-12~ ---------16~ -16-------------------]
C [------------------------------------------------------------------]
G [------------------------------------------------------------------]
D [------------------------------------------------------------------]

	End of Solo played during Pre-Chorus Riff
	Chorus
	Main Riff until fade
Comments