Drain Sth - Right Through You Chords & Tabs

 

Right Through You Chords & Tabs

Drain Sth Chords & Tabs

Version: 2 Type: Bass Tab 0 ratings
1 star 2 stars 3 stars 4 stars 5 stars
comments

Right Through You Bass Tab

Artist: Drain STH
Song: Right Through You
Album: Freaks of Nature
Bassist: Anna Kjellberg
Tabbed by: LedZeplica

dropped D tuning

Here's the intro..
G|-----------------------------------------
D|-----------------------------------------
A|-3--------------1----3--------------1----
D|------6----3--------------6----3---------

G|-----------------------------------------
D|-----------------------------------------
A|-3---------3-------------------1----2----
D|------6---------6----3-------------------


Then this is the frist verse..
  "I recall.."
G|-----------------------------------------
D|-----------------------------------------
A|-3--------------1----3-------------------
D|------6----3--------------6----0----5----

  "Cuz all the promises.."
G|-----------------------------------------------------
D|-----------------------------------------------------
A|-3--------------1----3-------------------------------
D|------6----3--------------6----0----5---3-----1---0--


Then this is the chorus..
G|---------------------------------
D|---------------------------------
A|-3-3-3-----------3-3-3-----------
D|-------6-6-6-6-6-------6-6-6-5-5-
[ Tab from: http://www.guitartabs.cc/tabs/d/drain_sth/right_through_you_btab_ver_2.html ]
G|---------------------------------
D|---------------------------------
A|-----------------1-1-1-1-2-2-2-2-
D|-3-3-3-3-3-3-3-3-----------------

G|---------------------------------
D|---------------------------------
A|-3-3-3-----------3-3-3-----------
D|-------6-6-6-6-6-------6-6-6-6-6-

G|------------------------------
D|------------------------------
A|------------------------------
D|-0-0-0-0-0-0-0-0-5---3---1-0--


Then the second verse is played the same as the first..
Then play the chrous again..

Then play this ending to the chorus..
  "I see.."
G|---------------------------------
D|---------------------------------
A|-3-3-3-----------3-3-3-----------
D|-------6-6-6-6-6-------6-6-6-6-6-

G|------------------
D|------------------
A|------------------
D|-0-0-0-0-0-0-0-0--


Then play this bridge..
          "Now I'm leaving.."
G|------------------
D|------------------
A|-5---3-----1---0--   play that 3x
D|------------------


Then the last verse is played like this..
G|-----------------------------------------
D|-----------------------------------------
A|-3--------------1----3--------------1----
D|------6----3--------------6----3---------

G|---------------------
D|---------------------
A|-3-------------------
D|------6----0----5----


Then play the chorus twice and end the song on middle C..

Thats it, later.
ledzeplica@aol.com
Comments