Drain Sth - Crack The Liars Smile Chords & Tabs

 

Crack The Liars Smile Chords & Tabs

Drain Sth Chords & Tabs

Version: 1 Type: Tab 0 ratings
1 star 2 stars 3 stars 4 stars 5 stars
comments

Crack The Liars Smile Tab

Crack The Liars Smile by Drain STH
Guitarist: Flavia Canel
Album: Horror Wrestling
Dif.: 7
Tabbed by Twiggy5

Intro (Acoustic)
D|-4---4---4---4----x-x-x-x-x--7--x-x-x-x-x-6--|
A|-4---4---4---4----x-x-x-x-x--7--x-x-x-x-x-6--|
E|-2---2---0h2-0h2--x-x-x-x-x--5--x-x-x-x-x-4--|

Intro/Verse/Pre-Chorus (w/ dist.)
D|-4---4---4----4---x-x-x-x-x--7--x-x-x-x-x-6--|
A|-4---4---4----4---x-x-x-x-x--7--x-x-x-x-x-6--|
E|-2---2---0h2-0h2--x-x-x-x-x--5--x-x-x-x-x-4--|

Chorus
D|--/9------5---|
A|--/9------5---| 4x
E|--/7------3---|

Post-Chorus (Gtr. 1)
D|--6--------------------|
A|--6--------------------|
E|--4--------------------|

Pre-Chorus (Gtr. 2)
E|--1/////////////////////////--|
B|--1/////////////////////////--|
G|--1/////////////////////////--|
          ^ slowly slide

Solo (w/ wah)
D|--4-4--2h4-2h4--x-x-7--7-7-6--6-6--9^-9^-9^-9^--
				                                              1/4 ^  ^1/2^--^ full
[ Tab from: http://www.guitartabs.cc/tabs/d/drain_sth/crack_the_liars_smile_tab.html ]
Solo (cont.)
G|----------------------------------------15^-15^-15^-15^-15^--
D|-9/10--10---14--14--15-15-15-15-15--------------------------
					                                                  ^ all full steps

Solo (cont.)
G|-17p15-14-14-17p15-14-14--------------------------
D|-----------------------------16-16--14h16-14h16--

Solo (cont.)
D|-X-X-X-X-X-19-19-X-X-X-X-18--|

Song Structre: -
Intro (Acoustic)
Intro 2
Verse (Im yours tonight..)
Pre-Chorus (Too many different..)
Chorus
Post-Chorus (Gtr. 1)/Post-Chorus (Gtr. 2)
Intro 2
Verse (I wont pretend...)
Pre-Chorus (I wont just live..)
Solo (w/ wah)
Pre-Chorus
Chorus
Post-Chorus
Chorus
Fade out

Awseome fucking song. Very underrated band. 
The best metal chic band out there. Better than fucking that dumb ass band kittie. 
kittie is one of the worst things thats happened to music since the Backstreet Boys. 
Im not quite sure about the solo but it sounds pretty right. 
If you have any comments, corrections or suggestions email me at ToXic345x@yahoo.ca
Comments