Drain Sth - Bubble Song Chords & Tabs

 

Bubble Song Chords & Tabs

Drain Sth Chords & Tabs

Version: 1 Type: Tab

Bubble Song Tab

verse
e(----------------------------------------------------------)
b(----------------------------------------------------------)
g(------4-------------4-------------4-------------4---------)
d(--------5-------------5-------------5-------------5-------)
a(----5-------1-3---5-------1-3---5-----1-131---5-----------)
D(--5-------3-----5-------3-----5-------------5-------0-110-)
[ Tab from: http://www.guitartabs.cc/tabs/d/drain_sth/bubble_song_tab.html ]
chorus
e(----------------------------------------)
b(----------------------------------------)
g(----------------------------------------)
d(--5-55-555-3-33-333-5-55-555-3-33-0-113-)
a(--5-55-555-3-33-333-5-55-555-3-33-0-113-)
D(--5-55-555-3-33-333-5-55-555-3-33-0-113-)

chorus and solo(lead)
e(--10--10-8-10--10-88-10-)
b(--10--10-8-10--10-88-10-)
g(------------------------)
d(------------------------)
a(------------------------)
D(------------------------)

solo
e(---------------------------------------------------------)
b(---------------------------------------------------------)
g(---------------------------------------------------------)
d(------------5457------------------------5457-------------)
a(--5h6-5-3/5------6-5h6-5-3/5--5h6-5-3/5------6-5h6-5-3/5-)
D(---------------------------------------------------------)