Dragonheart - Rebellion Chords & Tabs

 

Rebellion Chords & Tabs

Dragonheart Chords & Tabs

Version: 1 Type: Tab 0 ratings
1 star 2 stars 3 stars 4 stars 5 stars
comments

Rebellion Tab

   
#----------------------------------PLEASE NOTE--------------------------------#
#This file is the author's own work and represents their interpretation of the#
#song. You may only use this file for private study, scholarship, or research.#
#-----------------------------------------------------------------------------#
#-- File created with Instab - http://www.pconline.com/~smcarey/instab.html --#
#-----------------------------------------------------------------------------#

Author/Artist: DragonHeart
Title: Rebellion (The Clans Are Marching...) (original by Grave Digger)
Album: Throne Of The Alliance - 2002
Transcribed by: Son Of Northern Darkness (Felipe Cepollini)
Email: ben_wrangle@hotmail.com
Date: 24/January/2003

. palm mute


  INTRO PART 1
e|-----------------------------------------------------------------|
B|-----------------------------------------------------------------|
G|-----------------------------------------------------7-------5---|
D|-----9-------9-------9-------9-------9-------9-----7---7---5---5-|
A|---7---7---7---7---7---7---7---7---7---7---7---7-5-------3-------|
E|-0-------0-------0-------0-------0-------0-----------------------|

  INTRO PART 2
e|---------------------------------|---|
B|---------------------------------|---|
G|---------------------7-------5---|-5-|This C5, play after the 7x of
D|-----9-------9-----7---7---5---5-|-5-|"intro part 2".
A|---7---7---7---7-5-------3-------|-3-|
E|-0-------0-----------------------|---|

  FILL 1
e|---------------------------------------|
B|---------------------------------------|
G|---------------------------------------|
D|-4-4-4-4----4-4-4-4----4-4-4-4----5--5-|
A|-4-4-4-4----4-4-4-4----4-4-4-4----5--5-|
E|-2-2-2-2----2-2-2-2----2-2-2-2----3--3-|
[ Tab from: http://www.guitartabs.cc/tabs/d/dragonheart/rebellion_tab.html ]
  RIFF 1
e|----------------------------------------------------------------------|
B|----------------------------------------------------------------------|
G|----------------------------------------------------------------------|
D|---------------------------5------4/5----------------------------4--4-|
A|---------------------------5------4/5----------------------------4--4-|
E|-000000000000000000000000--3--00--2/3--000000000000000000000000--2--2-|
   ........................     ..       ........................
        
  VERSE
e|--------------------------------------|
B|--------------------------------------|
G|--------------------------------------|
D|---------------------------5------4/5-|
A|---------------------------5------4/5-|
E|-000000000000000000000000--3--00--2/3-|
   ........................     ..   
    
  PRE-CHORUS
e|------------------|
B|------------------|
G|------------------|
D|-----4---7----4/5-|
A|-----4---7----4/5-|
E|-0-0-2-0-5--0-2/3-|
   . .   .    .  

  FILL 2
e|--------------------|
B|--------------------|
G|--------------------|
D|-4-4-4-4----4-4-4-4-|
A|-4-4-4-4----4-4-4-4-|
E|-2-2-2-2----2-2-2-2-|

  CHORUS
e|-------------|---|
B|-------------|---|
G|------7----5-|---|This E5, play only before the solo begins.
D|-2----7----5-|-2-|
A|-2----5----3-|-2-|
E|-0-----------|-0-|

  INTERLUDE
e|----------------------------------------|
B|----------------------------------------|
G|----------------------------------------|
D|-----------------------------5------4/5-|
A|-----------------------------5------4/3-|
E|-0-000-000000000000-0-000-00-3--00--2/3-|
   . ... ............ . ... ..    ..  
     
  SOLO PART 1A             SOLO PART 1B
e|------------------------|-------------------|
B|------------------------|-------------------|
G|-9----9---7----7-5----5-|-9----9---7----7-5-|
D|-9----9---7----7-5----5-|-9----9---7----7-5-|
A|-7----7-7-5----5-3----3-|-7----7-7-5----5-3-|
E|--------.---------------|--------.----------|

  SOLO PART 2
e|------------------------------|
B|------------------------------|
G|-9----------9---7----7-5----5-|
D|-9----------9---7----7-5----5-|
A|-7--7-7-7-7-7-7-5----5-3----3-|
E|----.-.-.-.---.---------------|

  END
e|--------------------------------------------|
B|--------------------------------------------|
G|--------------------------------------------|
D|-4-4-4-4----4-4-4-4----4-4-4-4----5--5----2-|
A|-4-4-4-4----4-4-4-4----4-4-4-4----5--5----2-|
E|-2-2-2-2----2-2-2-2----2-2-2-2----3--3----0-|


SONGSTRUCTURE:
Intro part 1: 1x
Intro part 2: 7x
Fill 1: 1x
Riff 1: 1x
Verse: 4x
Pre-chorus: 3x
Fill 2: 1x
Chorus: 8x
Interlude: 1x
Verse: 2x
Pre-chorus: 3x
Fill 2: 1x
Chorus: 8x
E5
Solo part 1A: 3x
Solo part 1B: 1x
Solo part 2: 4x
Fill 2: 1x
Chorus: 8x
End: 1x


That's it! A great Grave Digger song, "coverized" by one of the best
brazilian bands.
Check their website: www.dragonheart.com.br
Comments, sugestions, eulogies or anything you want tell about the tab,
send a mail.
Comments