Dragonforce - Valley Of The Damned Chords & Tabs

 

Valley Of The Damned Chords & Tabs

Dragonforce Chords & Tabs

Version: 1 Type: Tab 0 ratings
1 star 2 stars 3 stars 4 stars 5 stars
comments

Valley Of The Damned Tab

Tuning: Standard


INTRO

E|----------------------------------| 
B|----------------------------------|
G|----------------------------------|
D|-----4h5-----4h5-----4h5-----4h5--|
A|----------------------------------|
E|-0-0-----0-0-----0-0-----0-0------|
[ Tab from: http://www.guitartabs.cc/tabs/d/dragonforce/valley_of_the_damned_tab.html ]
E|----------------------------------| 
B|----------------------------------|
G|----------------------------------|
D|-----4h5-----4h5-----4h5-----4h5--|
A|----------------------------------|
E|-3-3-----3-3-----3-3-----3-3------|

E|----------------------------------|----------------------|
B|----------------------------------|----------------------|
G|----------------------------------|----------------------|
D|-----2h4-----2h4-----2h4-----2h4--|-2-4-5-5-4-4-4-4/5\4--|
A|-5-5-----5-5-----5-5-----5-5------|-------------2-2/3\2--|
E|----------------------------------|----------------------|
Comments