Dragonforce - Through The Fire And Flames Chords & Tabs

 

Through The Fire And Flames Chords & Tabs

Dragonforce Chords & Tabs

Version: 4 Type: Tab

Through The Fire And Flames Tab

Band - DragonForce  
Song - Through The Fire And Flames
Album - Inhuman Rampage

Tuning - Standard - EADGBE

Right , im gonna change my solo a bit in this tab as it is way off , ive pieced together all the bits.

Here It Is

Guitar I - Herman Li      Guitar II - Crazy Sam

Intro: ( With Keyboard Or Acoustic)  - Guitar I & II

E|------------------------------|
B|------------------------------|
G|--5----xxxx--5----------------|     Then Play....
D|--5----xxxx--5--8~-6-5~-------|
A|--3----xxxx--3--8~-6-5~-------|
E|----------------6~-4-3~-------|

E|--------------------------------|
B|--------------------------------|
G|--5---xxxx--5-------------------|
D|--5---xxxx--5--6~---5---5-5-5---|
A|--3---xxxx--3--6~---5---5-5-5---|
E|---------------4~---3---3-3-3---|


Guitar I - Tremelo Picking


E|--------------------------------------------------------|
B|--------------------------------------------------------|
G|-888688686888688686--121212812128128121212812128128-----|
D|--------------------------------------------------------|
A|--------------------------------------------------------|
E|--------------------------------------------------------|

E|-----------------------------------------------------5*-| < For This Pull
B|--------------------------------------------------------| Your Whammy Bar
G|-101010810108108101010810108108--888688686--77777-------| Up And Down Fast
D|--------------------------------------------------------| And Very Hard
A|--------------------------------------------------------|
E|--------------------------------------------------------|

Guitar II - 

E|-------------------------------------------------------|
B|-------------------------------------------------------| carry on with..
G|--5-------------------12---------------10--------------|
D|--5-------------------12---------------10--------------|
A|--3-3-3-3-3-3-3-3-3-3-10-10-10-10-10-10-8-8-8-8-8-8-8--|
E|-------------------------------------------------------|
      . . . . . . . . .     .  .  .  .  .   . . . . . . 

E|------------------------|
B|------------------------|
G|---8---------------7----|
D|---8---------------7----|
A|---6-6-6-6-6-6-6-6-5----|
E|------------------------|
       . . . . . . .


Verse - 

Guitar I

E|------------------------------------------------|
B|------------------------------------------------|
G|-5--------------------------------5-5-------5---|
D|-5------------6---------8---------5-5--6-6--5---|
A|-3------------6---------8---------3-3--6-6--3---|
E|--------------4---------6--------------4-4------|

----------------------------Keyboard-----------------------------------

Guitar I & II

E|---------------------------------------------------------------|
B|---------------------------------------------------------------|
G|-5-----------------5-5-----------------------------------------| then..
D|-5-----------------5-5--6--------------------8------8----------|
A|-33333333333333333-3-3--6--------------------8------8----------|
E|------------------------4444444444444444----x666666x666666666--|
   ................       ...............      ...... ........

E|------------------------------|
B|------------------------------|
G|-----5-----5---5-5-3-5--------|
D|-----5-----5---5-5-3-5--------|
A|-3-3-3-3-3-3---3-3-1-3-3-3-3--|
E|------------------------------|
  . .   . .             . . .

Guitar I

E|--------------|
B|----------5*--|
G|-------5*-----| x 3
D|-1-0-1--------|
A|-1-0-1--------|
E|-1-0-1--------|
   . . .

Guitar II

E|-------------------------------------------------------------------|
B|-------------------------------------------------------------------|
G|-5-----------------5-5---------------------------------------------|
D|-5-----------------5-5--6--------------------8---8--6h8*-----------|
A|-33333333333333333-3-3--6--------------------8---8------66--6h8*---|
E|------------------------4444444444444444----x6-6--------88---------|
   ................       ...............   


E|--------------------|
B|--------------------|
G|-5-------------5-5--|
D|-5-------------5-5--|
A|-3-3-3-3-3-3-3-3-3--|
E|--------------------|
     . . . . . .

E|------------------------>>>>>> Slow Pickscrape Over Pickups >>>>>>-|
B|------------------------>>>>>>>>>>>>>>>>>>>>>>>>>>>>>>>>>>>>>>>>>--|
G|-------------------------------------------------------------------|
D|---6---6---6-----8-------------------------------------------------|
A|---6---6---6-----8-------------------------------------------------|
E|---4-4-4-4-4-4-4-6-------------------------------------------------|


Chorus -

E|-----------------------------------------------------------------|
B|-----------------------------------------------------------------|
G|--8--------------------5---5-------------------------------------|
D|--8-8-----6----4----6*-5---5---3/5*--8---8----------6------------|
A|--6-8-----6--4---4-----3-3-3-3-------8---8----6/8*--6------------|
E|----6-6-6-4--------------------------6-6-6-6--------4-444444444--|
        . .

High Bit - Working On


Verse - 

Guitar I

E|------------------------------------------------|
B|------------------------------------------------|
G|-5--------------------------------5-5-------5---|
D|-5------------6---------8---------5-5--6-6--5---|
A|-3------------6---------8---------3-3--6-6--3---|
E|--------------4---------6--------------4-4------|


Guitar I & II
[ Tab from: http://www.guitartabs.cc/tabs/d/dragonforce/through_the_fire_and_flames_tab_ver_4.html ]
E|---------------------------------------------------------------|
B|---------------------------------------------------------------|
G|-5-----------------5-5-----------------------------------------| then..
D|-5-----------------5-5--6--------------------8------8----------|
A|-33333333333333333-3-3--6--------------------8------8----------|
E|------------------------4444444444444444----x666666x666666666--|
   ................       ...............      ...... ........

E|------------------------------|
B|------------------------------|
G|-----5-----5---5-5-3-5--------|
D|-----5-----5---5-5-3-5--------|
A|-3-3-3-3-3-3---3-3-1-3-3-3-3--|
E|------------------------------|
  . .   . .             . . .

Guitar I

E|--------------|
B|----------5*--|
G|-------5*-----| x 3
D|-1-0-1--------|
A|-1-0-1--------|
E|-1-0-1--------|
   . . .

Guitar II

E|-------------------------------------------------------------------|
B|-------------------------------------------------------------------|
G|-5-----------------5-5---------------------------------------------|
D|-5-----------------5-5--6--------------------8---8--6h8*-----------|
A|-33333333333333333-3-3--6--------------------8---8------66--6h8*---|
E|------------------------4444444444444444----x6-6--------88---------|
   ................       ...............   


E|--------------------|
B|--------------------|
G|-5-------------5-5--|
D|-5-------------5-5--|
A|-3-3-3-3-3-3-3-3-3--|
E|--------------------|
     . . . . . .

Chorus -

E|-----------------------------------------------------------------|
B|-----------------------------------------------------------------|
G|--8--------------------5---5-------------------------------------|
D|--8-8-----6----4----6*-5---5---3/5*--8---8----------6------------|
A|--6-8-----6--4---4-----3-3-3-3-------8---8----6/8*--6------------|
E|----6-6-6-4--------------------------6-6-6-6--------4-444444444--|
        . .

High Bit - Working On



Interlude-


E|------------------------------------|
B|------------------------------------|
G|-------------5----------------5-----|
D|-------------5----------------5-----|
A|-------------3----------------3-----|
E|-0-1----01------0-1---0--1-01-------|
   

Solo - I have Parts Of It , Up To The Video Game Fx Bit , Its Probably Wrong Anyway!

E|-----------------------------------------------------------|
B|-------------------4h3p0-------------------------4h3p0-----|
G|-35h5h5p3-35h5h5p3------3/5----35h5h5p3-35h5h5p3-----------|
D|-----------------------------------------------------------| x 2
A|-----------------------------------------------------------|
E|-----------------------------------------------------------|
   ............................................... < Lightly Palm muted

E|--------------------------|
B|--7-10p9p7h5--5-8p7p5h3---|
G|--------------------------|
D|--------------------------|
A|--------------------------|
E|--------------------------|

E|----------------------------------------------------|
B|-10p10h12p10h10h12p10p10p13-10h10h12-7*-10p10h13-5*-|
G|----------------------------------------------------|
D|----------------------------------------------------|
A|----------------------------------------------------|
E|----------------------------------------------------|

E|-----------------------------------------------------------|
B|-------------------4h3p0-------------------------4h3p0-----|
G|-35h5h5p3-35h5h5p3------3/5----35h5h5p3-35h5h5p3-----------|
D|-----------------------------------------------------------| x 2
A|-----------------------------------------------------------|
E|-----------------------------------------------------------|

...................................... < Lightly Palm muted

E|------------------------------------------------------------------------|
B|----6-------------------------------------------------------------------|
G|-------5----3*^-------------08p10p11---10h11p12h14p13-5*-10p11p12h14-7*-|
D|----------4---------08p10p11--------------------------------------------|
A|------------------------------------------------------------------------|
E|-0---00-00--------------------------------------------------------------|
   .   .. ..  
E|-----------------12-----------------15--------|
B|-10-10-13-12-10-8--10-10-13-12-10-8-----------|
G|----------------------------------------------|
D|----------------------------------------------|
A|----------------------------------------------|
E|----------------------------------------------|


E|--------------------<-<-<->------------------------------|
B|-10-10-13-12-10-8---<-<->->-------------------<->->-<----|
G|--------------------<-<->->-10-10-13-12-10-8--<-<->->----|
D|----------------------------------------------<-<->->----|
A|---------------------------------------------------------|
E|---------------------------------------------------------|


Chorus -

E|-----------------------------------------------------------------|
B|-----------------------------------------------------------------|
G|--8--------------------5---5-------------------------------------|
D|--8-8-----6----4----6*-5---5---3/5*--8---8----------6------------|
A|--6-8-----6--4---4-----3-3-3-3-------8---8----6/8*--6------------|
E|----6-6-6-4--------------------------6-6-6-6--------4-444444444--|
        . .

Outro

Guitar I - Tremelo Picking


E|--------------------------------------------------------|
B|--------------------------------------------------------|
G|-888688686888688686--121212812128128121212812128128-----|
D|--------------------------------------------------------|
A|--------------------------------------------------------|
E|--------------------------------------------------------|

E|--------------------------------------------------------| 
B|--------------------------------------------------------| 
G|-101010810108108101010810108108--888688686--77777-------| 
D|--------------------------------------------------------| 
A|--------------------------------------------------------|
E|--------------------------------------------------------|


There You Go , Any Comments Questions Just Email Me