Dragonforce - Through The Fire And Flames Chords & Tabs

 

Through The Fire And Flames Chords & Tabs

Dragonforce Chords & Tabs

Version: 1 Type: Bass Tab

Through The Fire And Flames Bass Tab

   
By Christopher Mcwhirter

Intro:
G--------|-----------------||-------|------------------|
D--------|-----------------||-------|------------------|
A-3--1-3-|-----------------||3--1-3-|------------------|
E--------|-6--4--3--4--6--8||-------|-6--4--3--4--6--8-|

G-------------------------------------------------------|
D-------------------------------------------------------|
A--3-3-3-3-3-3-3-3-3-3-10-10-10-10-10-10-8-8-8-8-8-8-8--|
E-------------------------------------------------------|

G---------------------------------------------|
D---------------------------------------------|
A-6-6-6-6-6-6-6-6-6-6-6-5-5-5-5-5-5-5-5-5-1-3-|
E---------------------------------------------|

Verse:

G--------|-----------------||-------|------------------|
D--------|-----------------||-------|------------------|
A-3--1-3-|-----------------||3--1-3-|------------------|
E--------|-6--4--3--4--6--8||-------|-6--4--3--4--6--8-|

Chorus:
[ Tab from: http://www.guitartabs.cc/tabs/d/dragonforce/through_the_fire_and_flames_btab.html ]
G|-----------------------------------------------------------------|
D|---------------4----6----------3/5-------------------------------|
A|--6----------4---4-----3-3-3-3----------------6/8*---------------|
E|----6-6-6-4--------------------------6-6-6-6--------4-444444444--|

Play the Verse for Solo:

G--------|-----------------||-------|------------------|
D--------|-----------------||-------|------------------|
A-3--1-3-|-----------------||3--1-3-|------------------|
E--------|-6--4--3--4--6--8||-------|-6--4--3--4--6--8-|

Outro:

G-------------------------------------------------------|
D-------------------------------------------------------|
A--3-3-3-3-3-3-3-3-3-3-10-10-10-10-10-10-8-8-8-8-8-8-8--|
E-------------------------------------------------------|

G-------------------------------------------5-|
D---------------------------------------------|
A-6-6-6-6-6-6-6-6-6-6-6-5-5-5-5-5-5-5-5-5-1-3-|
E---------------------------------------------|

The End...