Dragon Ash - Fantasista Chords & Tabs

 

Fantasista Chords & Tabs

Dragon Ash Chords & Tabs

Version: 1 Type: Tab 0 ratings
1 star 2 stars 3 stars 4 stars 5 stars
comments

Fantasista Tab

   
Artist: Dragon Ash
Song: Fantasista
Album: HARVEST
Tuning: Standard

~ let ring


INTRO
e|----------------------------------
B|----5~--8-7-5---------------------
G|--4-----------7-5-0-7-5-7-5-9-7---
D|2-------------------------------9-              x4
A|----------------------------------
E|----------------------------------


VERSE
e|---------------------------------------------------
B|---------------------------------------------------
G|-x-9--9-9--9-x-9-x-x-9-9--x-x-5--5-5--7--x-7-x-x-7-
D|-x-9--9-9--9-x-9-x-x-9-9--x-x-5--5-5--7--x-7-x-x-7-         X4
A|-x-7--7-7--7-x-7-x-x-7-7--x-x-3--3-3--5--x-5-x-x-5-
E|---------------------------------------------------


PRE-CHORUS PART 1
e|------------------------------------------------
B|------------------------------------------------
G|-----------7-x-7-x-x-7-7--x-5--5-5--5-x-5-x-x-5-
D|-x-5--5-5--7-x-7-x-x-7-7--x-5--5-5--5-x-5-x-x-5-           X2
A|-x-5--5-5--5-x-5-x-x-5-5--x-3--3-3--3-x-3-x-x-3-
E|-x-3--3-3---------------------------------------

[ Tab from: http://www.guitartabs.cc/tabs/d/dragon_ash/fantasista_tab.html ]
PRE-CHORUS PART 2
e|-3--3-3-----3--3-3-----3--3-3-----1-1-1-
B|-3--3-3-----3--3-3-----3--3-3-----1-1-1-
G|-4--4-4-----4--4-4-----4--4-4-----1-1-1-
D|-5--5-5-----5--5-5-----5--5-5-----3-3-3-              x4
A|-5--5-5-----5--5-5-----5--5-5-----3-3-3-
E|-3--3-3-----3--3-3-----3--3-3-----1-1-1-


CHORUS
e|-3-3-3-3-3-3-3-3-3-3-3-3-3-3-3-3-7-7-7-7-7-7-7-7-5-5-5-5-5-5-5-5-
B|-3-3-3-3-3-3-3-3-5-5-5-5-5-5-5-5-9-9-9-9-9-9-9-9-6-6-6-6-6-6-6-6-
G|-4-4-4-4-4-4-4-4-5-5-5-5-5-5-5-5-9-9-9-9-9-9-9-9-7-7-7-7-7-7-7-7-
D|-5-5-5-5-5-5-5-5-5-5-5-5-5-5-5-5-9-9-9-9-9-9-9-9-7-7-7-7-7-7-7-7-    X4
A|-5-5-5-5-5-5-5-5-3-3-3-3-3-3-3-3-7-7-7-7-7-7-7-7-5-5-5-5-5-5-5-5-
E|-3-3-3-3-3-3-3-3-------------------------------------------------


OUTRO
e|-3-3-3-3-5-5-5-5-3-3-3-3-3-3-3-3-
B|-3-3-3-3-6-6-6-6-3-3-3-3-5-5-5-5-
G|-4-4-4-4-7-7-7-7-4-4-4-4-5-5-5-5-
D|-5-5-5-5-7-7-7-7-5-5-5-5-5-5-5-5-           x4
A|-5-5-5-5-5-5-5-5-5-5-5-5-3-3-3-3-
E|-3-3-3-3---------3-3-3-3---------


Song Order:
INTRO
VERSE
PRE-CHORUS PART 1
VERSE
PRE-CHORUS PART 1
PRE-CHORUS PART 2
CHORUS
INTRO
VERSE
PRE-CHORUS PART 1 (x4 instead of x2)
PRE-CHORUS PART 2
CHORUS
OUTRO
Comments