Dragon - April Sun In Cuba Chords & Tabs

 

April Sun In Cuba Chords & Tabs

Dragon Chords & Tabs

Version: 1 Type: Bass Tab 0 ratings
1 star 2 stars 3 stars 4 stars 5 stars
comments

April Sun In Cuba Bass Tab

DRAGON - "April Sun In Cuba" - Bass Tab

Common Time(4/4)
Standard Tuning(EADG)

INTRO/VERSE/END:
|------------.--|
|*-----------7-*|
|*-0-0-r-0-0---*|
|---------------|
   1 & 2 & 3 4

PRE-CHORUS:
|---------------|---------|---------|
|---------------|---------|---------|
|-0-0-r-0-0-r-5-|-------4-|-2-------|
|---------------|---------|---------|
  1 & 2 & 3 4 &   1 2 3 4   1 2 3 4

CHORUS:        ________     ____
              |1,2 & 3     |4 
|------------|------------|---------|
|*-----------|-.-.-.-----*|-.-.-----|
|*-.-.-.-----|-5-5-5-5---*|-5-5-r-r-|
|--3-3-3-3h5-|---------5--|---------|
   1 2 3 4 &   1 2 3 4 &    1 2 3 4
[ Tab from: http://www.guitartabs.cc/tabs/d/dragon/april_sun_in_cuba_btab.html ]
INTERLUDE:
|-----------------|-----------|---11-----7-|---6--------|
|*---9-------9h11-|-----------|------------|-----------*|
|*----------------|---0-------|------------|-----------*| (x3)
|-----------------|-----------|------------|------------|
   1 & 2 3 4 &  a   1 & 2 3 4   1 &  2 3 4   1 & 2 3 4

|----------------|-----------|---------|---------|
|---9-------9h11-|-----------|-.-------|---------|
|----------------|---0-------|-5-r-r-4-|-2-------|
|----------------|-----------|---------|---------|
  1 & 2 3 4 &  a   1 & 2 3 4   1 2 3 4   1 2 3 4

By: Johari Taylor
E-mail: johari@goconnect.net or viking@powerup.com.au
More Bass Tabs: http://www.powerup.com.au/~viking/basstab.htm 

Comments