Draconian - Cry Of Silence Chords & Tabs

 

Cry Of Silence Chords & Tabs

Draconian Chords & Tabs

Version: 1 Type: Tab 0 ratings
1 star 2 stars 3 stars 4 stars 5 stars
comments

Cry Of Silence Tab

BAND: DRACONIAN
ALBUM: WHERE LOVERS MOURN
SONG: THE CRY OF SILENCE
TABBED BY: JUAN CARLOS
NOTES: THIS SONG IS A LITTLE BIT LONG, ALMOST 13 MINUTES, BUT ITS QUITE SLOW, SO ITS
EASY. LISTEN THE SONG FIRST JUST TO MAKE SURE YOU'RE PLAYING IT CORRECTLY, BUT THIS
TAB IS CORRECT ANYWAY. ENJOY!

E----------------------------------|
B----------------------------------|
G----------------------------------|
D---0~~--0~~--3~--0-1~~------------| x2
A----------------------------------|
E-3----3----3----------------------|

E-------------------------------------------|
B-------------------------------------------|
G----------------------3-2-0~~--------------|
D---0~~--0~~--3~--0-1~------------3-0---3-1-| x4
A--------------------------(1-0-------------|
E-3----3----3-------------------3)----------|

E----------------------------------|  |
B-1-3~-1~----------1~--------------|  |
G---------33-2~~-3----3~-3/5-3-0~--|  |
D----------------------------------|  |
A----------------------------------|  |
E----------------------------------|  |
				      | x2 
E----------------------------------|  |
B-1-3~-1~----------1~---4-3~~------|  |
G---------33-2~~-3-----------------|  |
D----------------------------------|  |
A----------------------------------|  |
E----------------------------------|  |
Filled with sorrow...
Bleak inner self touched by pride,
devoured by solitude, still wrapped in time.
I'm flowing with pain!

E-------------------------------------------|
B-------------------------------------------|
G----------------------3-2-0~~--------------|
D---0~~--0~~--3~--0-1~------------3-0---3-1-| x4
A--------------------------(1-0-------------|
E-3----3----3-------------------3)----------|
Holding myself back in suspicion...
and lingering in the dust...
the dust of my abandoned remains.
Killed with the dagger of life...!

E----------------------------------|
B----------------------------------|
G-5~~-0-1--------------------------|
D-5~~-----6~~-0-1-5~~-0-1-6~~-0-1--| x2
A-3~~-----6~~-----5~~-----6~~------|
E---------4~~-----3~~-----4~~------|
Such an exquisite pride in my suffering...
alone, all alone with the emotional
streams of my soul...

E----------------------------------|
B----------------------------------|
G-5~~-0-1---------10~~-----7~~-----|
D-5~~-----6~~-0-1-10~~-3-1-7~~-----| x2
A-3~~-----6~~-----8-~~-----5~~-1---|
E---------4~~--------------------3-|
So real, so pure... yet i'm left aside
entangled in fear... without hope. 

E----------------------------------|
B----------------------------------|
G-01010~~--------------5~----------|
D--------6/0-6~0-3-5-6~--1-0~------| x2
A------------6~--------------1~-3~-|
E------------4~----------------3---|

E----------------------------------|  |
B-1-3~-1~----------1~--------------|  |
G---------33-2~~-3----3~-3/5-3-0~--|  |
D----------------------------------|  |
A----------------------------------|  |
E----------------------------------|  |
				      | x2 
E----------------------------------|  |
B-1-3~-1~----------1~---4-3~~------|  |
G---------33-2~~-3-----------------|  |
D----------------------------------|  |
A----------------------------------|  |
E----------------------------------|  |
I am truly left alone,
but somehow... just somehow
it feels like my loneliness is a victory
over the self-delusion of joy... and happiness.

E----------------------------------|
B----------------------------------|
G---3---3---2---2---3---3---0-0-0-0|
D--5-5-5-5-3-3-3-3-5-5-5-5-1-1-1-1-| x2
A----------------------------------|
E-3---3---3---3---3---3------------|

E----------------------------------|
B----------------------------------|
G---3---3---2---2---3---3---0-0-0-0|
D--5-5-5-5-3-3-3-3-5-5-5-5-1-1-1-1-| x2
A----------------------------------|
E-3---3---3---3---3---3------------|
My heart beats faster, 
the anguish becomes clearer
and my misanthropic view gets stronger.
[ Tab from: http://www.guitartabs.cc/tabs/d/draconian/cry_of_silence_tab.html ]
E----------------------------------|
B----------------------------------|
G----333/0----222/0----333/0-------|
D----------------------------------| x4
A-----------------------------0pm--|
E-333------333------333-------0pm--|
Living in the shadows...
so proud of being the one,
but desperate... 
so desperate for a helping hand. 
Do I really want to live this life?

E-------------------------------------------|
B-------------------------------------------|
G----------------------3-2-0~~--------------|
D---0~~--0~~--3~--0-1~------------3-0---3-1-| x4
A--------------------------(1-0-------------|
E-3----3----3-------------------3)----------|
I have a thousand reasons to die,
and many millions of tears to cry... in silence.
The human plague has emtied my life,
and I curse the day I was born... to this world! 

E----------------------------------|
B----------------------------------|
G-----0-1--------------------------|
D-------------0-1-----0-1-----0-1--| x2
A-3~~------------------------------|
E---------4~~-----3~~-----4~~------|
Still, no-one else I ever want to be...

E----------------------------------|
B----------------------------------|
G-----0-1--------------------------|
D-------------0-1------3-1---------| x2
A-3~~-------------8~~------5~~-1---|
E---------4~~--------------------3-|
and no-one else I intend to be...
'cause no-one else I was meant to be!

E----------------------------------|
B----------------------------------|
G-01010~~--------------5~----------|
D--------6/0-6~0-3-5-6~--1-0~------| x2
A------------6~--------------1~-3~-|
E------------4~----------------3---|

E----------------------------------|  | 
B----------------------------------|  | 
G----------------------------------|  | 
D---101-01-01-1310--101-01-01-1310-|  | 
A-3---------------3----------------|  | 
E----------------------------------|  | 
				      | x2
E----------------------------------|  | 
B----------------------------------|  | 
G-------------------101-01-01-1310-|  | 
D---101-01-01-1310-----------------|  | 
A-3---------------3----------------|  | 
E----------------------------------|  | 
I need, I want, I long for my retribution...
I need, I want, I yearn for my retribution...

E----------------------------------|
B----------------------------------|
G---101-01-01-1310--101-01-01-1310-|
D----------------------------------|
A-3---------------3----------------|
E----------------------------------|

E----------------------------------|
B-------------------313-13-13-1343-|
G---101-01-01-1310-----------------|
D----------------------------------|
A-3---------------3----------------|
E----------------------------------|
I want my retribution... I want it now!

E----------------------------------|  | 
B----------------------------------|  | 
G----------------------------------|  | 
D---101-01-01-1310--101-01-01-1310-|  | 
A-3---------------3----------------|  | 
E----------------------------------|  | 
				      | x2
E----------------------------------|  | 
B----------------------------------|  | 
G-------------------101-01-01-1310-|  | 
D---101-01-01-1310-----------------|  | 
A-3---------------3----------------|  | 
E----------------------------------|  | 
Unity; a gathering of open wounds,
of dark... of dark clean spirits...
what a dream... what a dream so distant!
Why should I... why should I be alone
when I love... when I love my brotherhood?
Shall I die... shall I die to be free 
when I cry... when I cry in silence...
when I cry... when I cry in silence...

E----------------------------------|
B----------------------------------|
G---101-01-01-1310--101-01-01-1310-|
D----------------------------------|
A-3---------------3----------------|
E----------------------------------|

E----------------------------------|
B-----------------313-13-13-13431~-|
G--101-01-01-1310------------------|
D----------------------------------|
A-3--------------3-----------------|
E----------------------------------|
when I cry... when I cry in silence...
so please let me die in silence...
oh my god, let me die in silence!

*PIANO ENDING*
Comments