Draconian - Akherousia Chords & Tabs

 

Akherousia Chords & Tabs

Draconian Chords & Tabs

Version: 1 Type: Tab 0 ratings
1 star 2 stars 3 stars 4 stars 5 stars
comments

Akherousia Tab

BAND: DRACONIAN
ALBUM: WHERE LOVERS MOURN
SONG: AKHEROUSIA
TABBED BY: JUAN CARLOS SANDOVAL

NOTES: THIS IS THE WHOLE SONG. I THINK ITS REALLY EASY BUT I LIKE IT A LOT, THAT'S WHY
I TABBED IT. YOU GOTTA LISTEN THE SONG FIRST SO YOU CAN KNOW HOW TO PLAY IT. ENJOY!

E---0--------0--------0--------0--------|
B---0--------0--------0--------0--------|
G---0--------0--------0--------0--------|
D---2--------2--------2--------2--------|
A---2--------2--------2--------2--------|
E---x--------x--------x--------x--------|

E---0--------0--------0--------0--------|
B---0--------0--------1--------3--------|
G---0--------0--------2--------2--------|
D---2--------2--------2--------2--------|
A---2--------2--------0--------0--------|
E---x--------x--------x--------x--------|
    My     light    slowly    fades    

E---0--------0--------0--------0--------|
B---0--------0--------0--------0--------|
G---0--------0--------0--------0--------|
D---2--------2--------2--------2--------|
A---2--------2--------2--------2--------|
E---x--------x--------x--------x--------|
   away

E---0--------0--------0--------0--------|
B---0--------0--------1--------3--------|
G---0--------0--------2--------2--------|
D---2--------2--------2--------2--------|
A---2--------2--------0--------0--------|
E---x--------x--------x--------x--------|
    My     hope's    gone and went     

E---0--------0--------0--------0--------|
B---0--------0--------0--------0--------|
G---0--------0--------0--------0--------|
D---2--------2--------2--------2--------|
A---2--------2--------2--------2--------|
E---x--------x--------x--------x--------|
  astray

E---0--------0--------0--------0--------|
B---0--------0--------1--------3--------|
G---0--------0--------2--------2--------|
D---2--------2--------2--------2--------|
A---2--------2--------0--------0--------|
E---x--------x--------x--------x--------|
   But  I  see their dark    dream -

E---0--------0--------0--------0--------|
B---0--------0--------0--------0--------|
G---0--------0--------0--------0--------|
D---2--------2--------2--------2--------|
A---2--------2--------2--------2--------|
E---x--------x--------x--------x--------|
  sails

E---0------------0------------0---------|
B---0------------0------------0---------|
G---0------------0------------0---------|
D---5------------5------------5---------|
A---5------------5------------5---------|
E---7------------7------------7---------|
   mmmm

E---0------------0------------0---------|
B---0------------0------------0---------|
G---0------------0------------0---------|
D---10-----------10-----------10--------|
A---10-----------10-----------10--------|
E---8------------8------------8---------|
   mmmm         Take          me

E---0------------0------------0---------|
B---3------------3------------3---------|
G---2------------2------------2---------|
D---2------------2------------2---------|
A---0------------0------------0---------|
E---x------------x------------x---------|
   away

E---0------------0------------0---------|
B---3------------3------------3---------|
G---2------------2------------2---------|
D---2------------2------------2---------|
A---0------------0------------0---------|
E---x------------x------------x---------|
                             from

E---0------------0------------0---------|
B---0------------0------------0---------|
G---0------------0------------0---------|
D---5------------5------------5---------|
A---5------------5------------5---------|
E---7------------7------------7---------|
   here

E---0------------0------------0---------|
B---0------------0------------0---------|
G---0------------0------------0---------|
D---10-----------10-----------10--------|
A---10-----------10-----------10--------|
E---8------------8------------8---------|
  aaaahhh      ooohhhh  

E---0------------0------------0---------|
B---3------------3------------3---------|
G---2------------2------------2---------|
D---2------------2------------2---------|
A---0------------0------------0---------|
E---x------------x------------x---------|
  aaaahhh      oooohhh

E---0------------0------------0---------|
B---3------------3------------3---------|
G---2------------2------------2---------|
D---2------------2------------2---------|
A---0------------0------------0---------|
E---x------------x------------x---------|
[ Tab from: http://www.guitartabs.cc/tabs/d/draconian/akherousia_tab.html ]
E---0------------0------------0---------|
B---0------------0------------0---------|
G---0------------0------------0---------|
D---5------------5------------5---------|
A---5------------5------------5---------|
E---7------------7------------7---------|
    In the cold of the  winter

E---0------------0------------0---------|
B---0------------0------------0---------|
G---0------------0------------0---------|
D---10-----------10-----------10--------|
A---10-----------10-----------10--------|
E---8------------8------------8---------|
    I found the other half of me.

E---0------------0------------0---------|
B---3------------3------------3---------|
G---2------------2------------2---------|
D---2------------2------------2---------|
A---0------------0------------0---------|
E---x------------x------------x---------|
       An   amethyst     broke through 

E---0------------0------------0---------|
B---3------------3------------3---------|
G---2------------2------------2---------|
D---2------------2------------2---------|
A---0------------0------------0---------|
E---x------------x------------x---------|
   the walls of silent solitude.

E---0------------0------------0---------|
B---0------------0------------0---------|
G---0------------0------------0---------|
D---5------------5------------5---------|
A---5------------5------------5---------|
E---7------------7------------7---------|
   But we are  lost in a  world 

E---0------------0------------0---------|
B---0------------0------------0---------|
G---0------------0------------0---------|
D---10-----------10-----------10--------|
A---10-----------10-----------10--------|
E---8------------8------------8---------|
   of despair,               so we 

E---0------------0------------0---------|
B---3------------3------------3---------|
G---2------------2------------2---------|
D---2------------2------------2---------|
A---0------------0------------0---------|
E---x------------x------------x---------|
   head for the ocean;      a destination

E---0------------0------------0---------|
B---3------------3------------3---------|
G---2------------2------------2---------|
D---2------------2------------2---------|
A---0------------0------------0---------|
E---x------------x------------x---------|
  unknown 

E---0------0------0-------0------0-------0---|
B---0------0------0-------0------0-------0---|
G---0------0------0-------0------0-------0---|
D---5------10-----12------5------10------12--|
A---5------10-----12------5------10------12--|
E---7------8------10------7------8-------10--|
  Maybe they want me to come onboard

E---0------0------0-------0------0-------0---|
B---0------0------0-------0------0-------0---|
G---0------0------0-------0------0-------0---|
D---5------10-----12------5------10------12--|
A---5------10-----12------5------10------12--|
E---7------8------10------7------8-------10--|
   Maybe I'm cursed here to stay

E---0------0------0-------0------0-------0---|
B---0------0------0-------0------0-------0---|
G---0------0------0-------0------0-------0---|
D---5------10-----12------5------10------12--|
A---5------10-----12------5------10------12--|
E---7------8------10------7------8-------10--|
  But maybe they want me to come onboard 

E---0---------0----------0----------0--------|
B---0---------0----------0----------0--------|
G---0---------0----------0----------0--------| x2
D---5---------10---------12---------12-------|
A---5---------10---------12---------12-------|
E---7---------8----------10---------10-------|

E---0------0------0-------0------0-------0---|
B---0------0------0-------0------0-------0---|
G---0------0------0-------0------0-------0---|
D---5------10-----12------5------10------12--|
A---5------10-----12------5------10------12--|
E---7------8------10------7------8-------10--|
   Maybe they'll gather all the lost souls

E---0------0------0-------0------0-------0---|
B---0------0------0-------0------0-------0---|
G---0------0------0-------0------0-------0---|
D---5------10-----12------5------10------12--|
A---5------10-----12------5------10------12--|
E---7------8------10------7------8-------10--|
   Maybe they've heard our mournful cries

E---0------0------0-------0------0-------0---|
B---0------0------0-------0------0-------0---|
G---0------0------0-------0------0-------0---|
D---5------10-----12------5------10------12--|
A---5------10-----12------5------10------12--|
E---7------8------10------7------8-------10--|
    And maybe they want us to come onboard. 

E---0-0-0-------------------------------|
B---0-0-0-------------------------------|
G---0-0-0-------------------------------|
D---5-5-5-------------------------------|
A---5-5-5-------------------------------|
E---7-7-7-------------------------------|
Comments