Dr Dre - Nothin But A G Thang Chords & Tabs

 

Nothin But A G Thang Chords & Tabs

Dr Dre Chords & Tabs

Version: 1 Type: Tab 0 ratings
1 star 2 stars 3 stars 4 stars 5 stars
comments

Nothin But A G Thang Tab

Artist: Dr. Dre featuring Snoop Dogg (Red Hot Chili Peppers) 
Song: Nothin' but a G thang
Tabber: Maxx the John Frusciante fanatic

 Hey everyone.   This is my second tab and basicly the only reason I
tabbed it was because Red Hot Chili Peppers covered it live.  It took
me about like a few minutes to tab, its really simple.  Well here you
go.

Intro
[ Tab from: http://www.guitartabs.cc/tabs/d/dr_dre/nothin_but_a_g_thang_tab.html ]
e|------------------|--------------------|
B|------------------|----------12-12-----|
G|---11-----11----9-|--11--11--------9---|
D|------------------|--------------------|
A|------------------|--------------------|
E|------------------|--------------------|


Main Riff

e|--------------------------|
B|-12-12-----12------12-12--|
G|-------11-----11---------9|
D|--------------------------|
A|--------------------------|
E|--------------------------|

 Well I hope you enjoy this tab.  RED HOT CHILI PEPPERS RULE and JOHN 
FRUSCIANTE is GOD.
Comments