Dr Dre - Let Me Ride Chords & Tabs

 

Let Me Ride Chords & Tabs

Dr Dre Chords & Tabs

Version: 1 Type: Bass Tab 0 ratings
1 star 2 stars 3 stars 4 stars 5 stars
comments

Let Me Ride Bass Tab

Song: Let Me Ride
Band: Dr. Dre
Album: The Chronic
Tabbed by: Rob MacGuffie (SubDubLBC@aol.com)


 Matt Clark had it close, but he was half a step off.
[ Tab from: http://www.guitartabs.cc/tabs/d/dr_dre/let_me_ride_btab.html ]
 |---------------------------5---------|
 |----------------5--------------------|
 |------------------1-3-3-------/6--/5-|
 |-1/3--1-1h3--------------------------|

 |---------------------------5------8-----7-|
 |----------------5-------------------------|
 |------------------1-3-3-------/6----/5----|
 |-1/3--1-1h3-------------------------------|

|Key|
h = hammer on
/ = slide up

Comments