Dr Dre - Forgot About Dre Chords & Tabs

 

Forgot About Dre Chords & Tabs

Dr Dre Chords & Tabs

Version: 5 Type: Tab 0 ratings
1 star 2 stars 3 stars 4 stars 5 stars
comments

Forgot About Dre Tab

Bass part:

g----------------------
d-5~--5-7-8-777--------
a---------------6-5----
e-------------------4--

tab:
[ Tab from: http://www.guitartabs.cc/tabs/d/dr_dre/forgot_about_dre_tab_ver_5.html ]
e----------3--5--6-----
b-------3--------------
g----3-----------------
d-5--------------------
a----------------------
e----------------------

if you have any comments about this tab please 
contact me at el_matador_20@altavista.com
Comments