Dr Dre - Forgot About Dre Chords & Tabs

 

Dr Dre Chords & Tabs

Version: 4 Type: Tab 0 ratings
1 star 2 stars 3 stars 4 stars 5 stars
comments

Forgot About Dre Tab

Dr. Dre
Forgot About Dre
Tabbed By: mjwk_1986@yahoo.com


Intro Chords

E----3---8---3--listen to saong for # of times to play each chord
B----3---8---3--
G----3---8---3--
D----5---8---5--
A---------------
E---------------
[ Tab from: http://www.guitartabs.cc/tabs/d/dr_dre/forgot_about_dre_tab_ver_4.html ]
Main Riff played throughout song

E--------3-5-6--------3-5-6---------3-5-6--
B------3------------4-------------3--------
G---3-------------3-------------3----------
D-5-------------5-------------5------------
A------------------------------------------
E------------------------------------------
Comments