Dr Dre - Forgot About Dre Chords & Tabs

 

Forgot About Dre Chords & Tabs

Dr Dre Chords & Tabs

Version: 1 Type: Tab 0 ratings
1 star 2 stars 3 stars 4 stars 5 stars
comments

Forgot About Dre Tab

Dr.Dre
Forgot About Dre


Bass tab:

g---------------------
d-5~---5-7-8-88-------
a---------------6-5---
e-------------------4-

main riff:
[ Tab from: http://www.guitartabs.cc/tabs/d/dr_dre/forgot_about_dre_tab.html ]
e----------3--5--6-----------
b-------3--------------------
g----3-----------------------
d-5--------------------------
a----------------------------
e----------------------------

any comments or changes write to:
el_matador_20@altavista.com
Comments