Dr Destructo - 1 3 4 5 Chords & Tabs

 

1 3 4 5 Chords & Tabs

Dr Destructo Chords & Tabs

Version: 1 Type: Tab 0 ratings
1 star 2 stars 3 stars 4 stars 5 stars
comments

1 3 4 5 Tab

-------------------------------------------------------------------------------
			     1,3,4,5 - Dr. Destructo
-------------------------------------------------------------------------------

By: Dr Destructo & The Addaptoids

	X=Damping

	h=Hammer on

	p=pull off	

	~=Vibrato
				Intro

	Play Intro 6 times on the first guitar then the second guitar plays 
riff 1 while the first guitar is still playing the intro.  But if you want 
to play the song without playing the intro at the same time as riff one it 
will sound fine.

e|---------------------------------------------------------------------------|
B|---------------------------------------------------------------------------|
G|---------------------------------------------------------------------------|
D|--5--h8p5--5--h7p5--5--h7p5--5--h7p5--5--h8p5--5--h7p5-----8---7-----------|
A|----------------------------------------------------------10---9-----------|
E|---------------------------------------------------------------------------|
				
				Riff 1

	You can play riff 1 without damping and it should be easier to learn 
then once you have mastered it try it with damping.
[ Tab from: http://www.guitartabs.cc/tabs/d/dr_destructo/1_3_4_5_tab.html ]
e|---------------------------------------------------------------------------|
B|---------------------------------------------------------------------------|
G|---------------------------------------------------------------------------|
D|-----7x-----------------------7x-----------------------7x------------------|
A|--5x----8x-7x-8x-10x-8-7---5x----8x-7x-8x-10x-8-6---5x----8x-7x-8x-10x-8-7-|
E|---------------------------------------------------------------------------|
			   
			   Riff 1 Continued
e|---------------------------------------------------------------------------|
B|---------------------------------------------------------------------------|
G|-----------------5x-7v-----------------------------------------------------|
D|-----------5x-7x-------------------------8x--------------------------------|
A|--5x-7x-8x---------------5x-8x-4---5x-8x----4---5x-8x-4--5-4-5-4-----------|
E|---------------------------------------------------------------------------|

	The rest of the song is pretty easy after this, but i havn't figured
it out yet but i will soon.		

===============================================================================
Comments