Dp - Bbc Snooker Theme Chords & Tabs

 

Bbc Snooker Theme Chords & Tabs

Dp Chords & Tabs

Version: 2 Type: Tab 0 ratings
1 star 2 stars 3 stars 4 stars 5 stars
comments

Bbc Snooker Theme Tab

By DP 
Acoustic Version
BBC Snooker Theme.

|--12b--12b--12bvvvvvvvvvvv---|

We Put this festival on for you you bastards, With a lotta love.          

e|--------------------------------------------------------------------| x2
B|--------------------------------------------------------------------|
G|----------------------------7--5b^7-----------7--7------------------| Play First Time
D|-5--7--7--7--5--7--5--7--7--0--------7--5--5--0--0---7--7--5-6-7----| Without bend.
A|-0--0--0--0--0--0--0--0--0-----------0--0--0---------0--0--0-0-0----|
E|--------------------------------------------------------------------|


e|--------------------------------------------------|
B|--------------------------------------------------|
G|--------------------------------------------------|
D|--------------------------------------------------|
A|--7-7-7---7-6--5--3-2-0-------------3--3----------|
E|------------------------3---0--2--------1--1------|

     							
e|--------------------------------------------------------------------------------------|
B|--------------------------------------------------------------------------------------|
G|--------------------------------------------------------------------------------------|
D|---------------------------------------------------7--7---9b^11-----------------------|
A|---------0---3---0------0------------------7---9-----------------9---10---9--7vvvvvv--|
E|--0---2--------------2---------------7/9----------------------------------------------|

	
	
[ Tab from: http://www.guitartabs.cc/tabs/d/dp/bbc_snooker_theme_tab_ver_2.html ]
e|------5------5------5------5------5vvvvv---------5----5-h7p5-7b^9r7-7b^9r7--7b^9r7p5--|
B|---5h7----5h7---5h7----5h7----5h7-------------5h7--5h7--------------------------------|
G|--------------------------------------------------------------------------------------|
D|--------------------------------------------------------------------------------------|
A|--------------------------------------------------------------------------------------|
E|--------------------------------------------------------------------------------------|


e|---------5----7----h7p5-7b^9r7-7b^9r7--7b^9r7p5----------5---7------|
B|-5----7-------------------------------------------5----7------------|
G|--------------------------------------------------------------------|
D|--------------------------------------------------------------------|
A|--------------------------------------------------------------------|
E|--------------------------------------------------------------------|        Harmonic G 3
                                                                        Wham brive or dive bomb 
                                                                          trem bar.
e|---------------------------------------------------------0----2--0--2---0------------------|
B|---------------------------------------------------------2----3--0--3---2------------------|
G|------------------------------------0--1--1--0-----------2----2--0--2---2------------------|
D|-------------------0--2--2--0-------0--2--2--0-----------2----0--0--0---2------------------|
A|--0--2--2--0--X-x--0--2--2--0--X-x--0--2--2--0--X-x----------------------------------------|
E|--0--0--0--0--X-x--0--0--0--0--X-x--0--0--0--0--X-x----------------------------------------|


       _____       ______
      //---\\     /------\
     //     \\   //      \\
    //      //  //       // 
   //      //  //_______//
  //      //  //--------
 //______//  //
----------  //

Play This Song
Because Its Brilliant
    
Comments