Doyle Bramhall - Green Light Girl Chords & Tabs

 

Green Light Girl Chords & Tabs

Doyle Bramhall Chords & Tabs

Version: 2 Type: Tab 0 ratings
1 star 2 stars 3 stars 4 stars 5 stars
comments

Green Light Girl Tab

   
Author: Mike Kruft
Artist: Doyle Bramhall II & Smokestack
Album: Welcome
Song: Green Light Girl

feel free to email me at evenwallsfalldwn@hotmail.com

I submitted the other tab of GLG, but I ran through it one more time
and found some things to fix, so here's an updated version.

If you're looking at this then bless you for liking good rock and roll.

^ - slight bend
* - major bend
p - pull off
h - hammer on
/ - slide up
~ - vibrato

Riff 1:
e-------------------------------------------------------------------------|
B--5^p3^-----------------------------------5^p3---------------------------|
G---------5^p3^h5~---5^p3------------------------5^p3^h5~---5^p3----------|
D----------------------------5^p3^h5~-------------------------------5^p3~-|
A-------------------------------------------------------------------------|
E-------------------------------------------------------------------------|

There's a fast strumming pattern throughout the song
with a lot of palm mutes (especially during the opening)
you'll get the hang of it.


Chords:
e------------                -------------|
B------7-----                -----10------|
G------7-----                -----10------|
D------7-----                -----10------|
A------5-----                -----8-------|
E------------                -------------|
     D                              F


e------------                -----3--------|
B------5-----                -----3--------|
G------5-----                -----4--------|
D------5-----                -----3--------|
A------3-----                -----5--------|
E------------                -----3--------|
     C                         barred   G

e------------|
B-----12-----|
G-----12-----|
D-----12-----|
A-----10-----|
E------------|
      G


Riff 2:
e-------------------------------------------------------------------------|
B-5^p3-------------------------------5^p3---------------------------------|
G--------5^p3^h5~---5^p3--------------------5^p3^h5^p3~-------3^h5^p3-----|
D---------------------------5^p3^h5~-----------------------5-----------3--|
A-------------------------------------------------------------------------|
E-------------------------------------------------------------------------|

[ Tab from: http://www.guitartabs.cc/tabs/d/doyle_bramhall/green_light_girl_tab_ver_2.html ]
Solo:  lead in chords
e------/10-----/10----/11----/12----/14------------------------|
B------/9------/9-----/10----/11----/13------------------------|
G------/10-----/10----/11----/12----/14------------------------|
D--------------------------------------------------------------|
A--------------------------------------------------------------|
E--------------------------------------------------------------|

Only part I was able to figure out...

e-------------------------------------------------------------------------|
B------------19*--------------19*-----------------20*--19-----------------|
G--20^--18^-------20  20  18------20------20  18--------------------------|
D-------------------------------------------------------------------------|
A-------------------------------------------------------------------------|
E-------------------------------------------------------------------------|

e--------------------------------------------------------------------------|
B-----------19^-------------------20*--19^-----------------20*--19~----20--|
G--20---18-------20-----18---20----------------18---20---------------------|
D--------------------------------------------------------------------------|
A--------------------------------------------------------------------------|
E--------------------------------------------------------------------------|

it gets murky from there...
but with a sharp ear you should be able to map your own way though it


Song structure:

Intro:

Riff 1 (repeat)

D  (F / G / F)

Verse:

  D                          C                  G (barred)
pretty thing on her feet..  spend all night... in a red light town...


Chorus:

  D           G     F
Lookin' for a green light...


Bridge:

Riff 1 (repeat)

D (F / G / F)


Verse:

  D                        C                      G (barred)
All the boys want you.. touch if you want to.. she's the girl of the year.


Chorus:

  D            G     F
Talkin' bout a green light..


Bridge:

Riff 2
Riff 1


Solo


Chorus:

G     F        D
Green light..



Outro:

Riff 2
Riff 1
Comments