Doyle Bramhall - Green Light Girl Chords & Tabs

 

Green Light Girl Chords & Tabs

Doyle Bramhall Chords & Tabs

Version: 1 Type: Tab 0 ratings
1 star 2 stars 3 stars 4 stars 5 stars
comments

Green Light Girl Tab

song title: green light girl
artist: doyle bramhall II

ok now this is a kick ass song he sounds just like ol srv him self but this
isent the whole tab ill have it soon!!
[ Tab from: http://www.guitartabs.cc/tabs/d/doyle_bramhall/green_light_girl_tab.html ]
e----------------------------|
B----------------------------|
G-5b-3-----------------------|
D------3-5--5b-3-------------|
A-----------------3-5--------|
E----------------------------|

e----------------------------|
B----------------------------|
G-5b-3-----------------------|
D------3-5--5b-3-------------|
A-----------------3----------|
E----------------------------|


its just the main riff but somebody will enjoy it!!!

any q&a e-mail me blbethel@hotmail.com

                         KI?K V?N H?N?R?x
Comments