Downway - Here Today Gone Today Chords & Tabs

 

Here Today Gone Today Chords & Tabs

Downway Chords & Tabs

Version: 1 Type: Tab 0 ratings
1 star 2 stars 3 stars 4 stars 5 stars
comments

Here Today Gone Today Tab

   
Band: Downway
Song: Here Today, Gone Today
Album: Kacknacker
Tabbed: Tommy
Tuning: Drop D
----------------------------------------

Intro:Guitar 1
e|--------------------------------------
B|--------------------------------------
G|--------------------------------------
D|-4-4-4-4--4-4--4-4--6-6-6-6--6-6--6-6-
A|-4-4-4-4--4-4--4-4--6-6-6-6--6-6--6-6-
D|-4-4-4-4--4-4--4-4--6-6-6-6--6-6--6-6-
Pm........       ............       ....

Intro:Guitar 2
e|---------------------------------
B|---------------------------------
G|-6-6-6-6/7-7-7-7/9-9-9-9/8-8-8-8-
D|---------------------------------
A|-4-4-4-4/5-5-5-5/7-7-7-7/6-6-6-6-
D|---------------------------------

Intro 2:Both Guitars  (Play Fast)
e|--------------------------------------------------
B|--------------------------------------------------
G|-6666666666666666-7/88888888888888888888\66666666-
D|--------------------------------------------------
A|-4444444444444444-5/66666666666666666666\44444444-
D|--------------------------------------------------

Verse:Guitar 1
e|------------------
B|------------------
G|------------------
D|-44-66-66-66--6\4-
A|-44-66-66-66--6\4-
D|-44-66-66-66--6\4-

Verse:Guitar 2
e|------
B|------
G|-8xx7-
D|-xxxx-
A|-6xx5-
D|------

Pre-Chorus:Guitar 1 & 2
e|---------------------------------------------------------------------------------
B|---------------------------------------------------------------------------------
G|---------------------------------------------------------------------------------
D|-666666666-444444444-666666666-444444444-666666666-444444444-666666666-444444444-
A|-666666666-444444444-666666666-444444444-666666666-444444444-666666666-444444444-
D|-666666666-444444444-666666666-444444444-666666666-444444444-666666666-444444444-

Chorus:Guitar 1
e|-------------------
B|-------------------
G|-------------------
D|-44444444-66666666-
A|-44444444-66666666-
D|-44444444-66666666-

Chorus:Guitar 2
e|---------------------------------
B|---------------------------------
G|-6-6-6-6/7-7-7-7/9-9-9-9/8-8-8-8-
D|---------------------------------
A|-4-4-4-4/5-5-5-5/7-7-7-7/6-6-6-6-
D|---------------------------------

Outro Chorus:Both Guitar 1 & 2
e|---------------|------------
B|---------------|------------
G|-6666666666----|-8888888888-
D|---------------|------------
A|-4444444444--0-|-6666666666-
D|---------------|------------
[ Tab from: http://www.guitartabs.cc/tabs/d/downway/here_today_gone_today_tab.html ]
Verse:Guitar 1
e|------------------
B|------------------
G|------------------
D|-44-66-66-66--6\4-
A|-44-66-66-66--6\4-
D|-44-66-66-66--6\4-

Verse:Guitar 2
e|------
B|------
G|-8xx7-
D|-xxxx-
A|-6xx5-
D|------

Pre-Chorus:Guitar 1 & 2
e|---------------------------------------------------------------------------------
B|---------------------------------------------------------------------------------
G|---------------------------------------------------------------------------------
D|-666666666-444444444-666666666-444444444-666666666-444444444-666666666-444444444-
A|-666666666-444444444-666666666-444444444-666666666-444444444-666666666-444444444-
D|-666666666-444444444-666666666-444444444-666666666-444444444-666666666-444444444-

Chorus:Guitar 1
e|-------------------
B|-------------------
G|-------------------
D|-44444444-66666666-
A|-44444444-66666666-
D|-44444444-66666666-

Chorus:Guitar 2
e|---------------------------------
B|---------------------------------
G|-6-6-6-6/7-7-7-7/9-9-9-9/8-8-8-8-
D|---------------------------------
A|-4-4-4-4/5-5-5-5/7-7-7-7/6-6-6-6-
D|---------------------------------

Outro Chorus:Both Guitar 1 & 2
e|---------------|------------
B|---------------|------------
G|-6666666666----|-8888888888-
D|---------------|------------
A|-4444444444--0-|-6666666666-
D|---------------|------------

Solo:Guitar 1:
e|------------------
B|------------------
G|------------------
D|-44-66-66-66--6\4-
A|-44-66-66-66--6\4-
D|-44-66-66-66--6\4-

Solo: Guitar 2:
e|-----------------
B|-----------------
G|-6-6-6-6-10-10-8-
D|-----------------
A|-----------------
D|-----------------

Chorus:Guitar 1
e|-------------------
B|-------------------
G|-------------------
D|-44444444-66666666-
A|-44444444-66666666-
D|-44444444-66666666-

Chorus:Guitar 2
e|---------------------------------
B|---------------------------------
G|-6-6-6-6/7-7-7-7/9-9-9-9/8-8-8-8-
D|---------------------------------
A|-4-4-4-4/5-5-5-5/7-7-7-7/6-6-6-6-
D|---------------------------------

Outro Chorus:Both Guitar 1 & 2
e|---------------|------------
B|---------------|------------
G|-6666666666----|-8888888888-
D|---------------|------------
A|-4444444444--0-|-6666666666-
D|---------------|------------

Solo:Guitar 1:
e|------------------
B|------------------
G|------------------
D|-44-66-66-66--6\4-
A|-44-66-66-66--6\4-
D|-44-66-66-66--6\4-

Solo: Guitar 2:
e|-----------------
B|-----------------
G|-6-6-6-6-10-10-8-
D|-----------------
A|-----------------
D|-----------------
Comments