Downside Up - Oh My Soul Chords & Tabs

 

Oh My Soul Chords & Tabs

Downside Up Chords & Tabs

Version: 1 Type: Bass Tab 0 ratings
1 star 2 stars 3 stars 4 stars 5 stars
comments

Oh My Soul Bass Tab

This band is awesome.  We’ve been together for about six years.  I play the bass and sometimes the guitar in the band.  It’s a christian ska band mostly, but we also play rock and hip/hop.  We had 6 members when we first started out, then we picked up a trombone player who fills in for our lead singer sometimes.  We’ve played at several clubs, parks, other churches, and even a coffee house.  Downside Up is set up like this:
Krisann - lead singer, piano
Lindsay - backup singer, trumpet, piano
Nate - drums
Brent - lead guitar, rhythm guitar
Clint - bass, lead guitar
Rhiannon - backup singer, tambourine
Eric - baritone, lead singer

We’ll probably be posting some of our songs soon (hopefully).  They weren’t professionally recorded, so please bear with the quality.  Thanks.
This bass solo is just a part of one of our many great songs.  It’s called “Oh My Soul.”
/   slide
*  harmonic
^  bend
p  pull off
h  hammer on
»  let ring briefly (like a pause, but don't let go of the note)
notes in parents ( ) are ghost notes, do not pick 
all single notes have a space between them (i.e. 1-0-3 means first fret, then open, then third fret)
two numbers together means one note (i.e. 10-11-13 means tenth fret, then eleventh, then thirteenth)
[ Tab from: http://www.guitartabs.cc/tabs/d/downside_up/oh_my_soul_btab.html ]
G------------0-3-5-0-12*---5-3-0-----------------0-1-0------------0------------------------------------------------
D---0-1-3-4----------12*----------4-3/1-0----------------3-1p0------3-1-0-------------0-3-1---------------------
A-3--------------------12*-------------------3------------------3-----------3-1p0------------3-2-1»--1h2h3»-
E-----------------------------------------------------------------------------------3------------------------------

G------------------------------------------0-5*----7*»--(2)/7-5-----------------(7)/10-8---------------------------
D--------------------------0-3-0----0-3-------5*-----------------7-6-5----------------------10-9-8----------------
A---------------------3»----------3---------------------------------------8-7-5------------------------11-10-8-6---
E-2h3p2-1»/8/6-6---------------------------------------------------------------------------------------------------8-

G--------------------------12--11--10-10/9--------------------------------------------------------------------------8h9h10»
D--------------------------------------------------6-8^-6---------6--------------------------------------8h9h10----------
A----------------------10----9----8----------8p6-8----------8-6h8---8-6-------------------------6h7h8--------------------
E-7-6-4-3-2»-1/8»----------------------------------------------------------8-6^-6^-6^--6h7h8----------------------------

G-10---5-------8----9-----------------------14-15-14----------------------------------------------------1h3p1---
D----6---6--------8---8---/14-----17-14»-15----------15/--------------------3-1---3-1---------------1-3-------1-
A-8---------8--6--------9------15------------------------8/---0-1-0---1-3»------3-----3-1-----3-1-3---------------
E-----------------------------------------------------------1--------1--------------------4-1----------------------

G---1------------------------1h3-1-----------------
D-3--0-1h3---------------1-3--------3-1-------------
A------------1h3---3-1-3-----------------3-1h3------
E----------------1-----------------------------1---

elapsed playing time - approximately 30-35 seconds


Comments