Downface - Ocean Chords & Tabs

 

Ocean Chords & Tabs

Downface Chords & Tabs

Version: 1 Type: Tab 0 ratings
1 star 2 stars 3 stars 4 stars 5 stars
comments

Ocean Tab

Author/Artist: Downface (www.downface.com)
Title: Ocean
Album: Confidence
Transcribed by: Andrew Biles

The "intro" is the first 4 lines of the lyrics and then it changes to a deeper
pitch.  The second and third line only have one slight difference between them,
but I thought I'd put it in anyway.  The chords I think are right so far although
they're not complete so I'll try updating that soon.

|---------------------0-----0---------------------------------------
|-----1-----1-------1-----1-----1-----3-----3---------3-------------
|---2-----2-----2-------------------2-----2-----2---2---2---2---0---
|-3-----3-----3---2-----2-----2---0-----0-----0---0-------0---2-----
|-------------------------------------------------------------------
|-------------------------------------------------------------------
                                                                  x5          

|-------------------------------------------------0------------------
|---------------------------------------------------1---1------------
|-----0-----0---------5-----0---------2-----2---------2---2----------
|---2-----2-----2---0-----0-----0---2-----2-----2-----------2---2----
|-3-----3-----3---2-----2-----2---0-----0-----0---------------0------
|--------------------------------------------------------------------
                                                                  x1          
[ Tab from: http://www.guitartabs.cc/tabs/d/downface/ocean_tab.html ]
|-------------------------------------------------0------------------
|---------------------------------------------------1---1------------
|-----0-----0---------0-----0---------2-----2---------2---2----------
|---2-----2-----2---0-----0-----0---2-----2-----2-----------2---2----
|-3-----3-----3---2-----2-----2---0-----0-----0---------------0------
|--------------------------------------------------------------------
                                                                  x2          

|------------------------------------|--0----0---0----
|------------------------------------|-(0h1)-2---1----
|-----0-----0-----------0-----0------|--2----2---2----
|---2-----2-----2-----4-----4-----4--|--2----2---3----
|-3-----3-----3---3/5-----5-----5----|--0----0---0----
|------------------------------------|----------------
                                        ^keep strumming and switching between

Chorus
|-0------3------0-----
|-1------0------1-----
|-0------0------2-----
|-2------0------2-----
|-3------2------0-----
|--------3------------
               ^(Am) twice as many strums as previous 2 chords

basically all the chords played after are from the last two chord sequences
so the order you'll have to work out.

any questions? andrewbiles@hotmail.com
__________________________
Lyrics:

Circling colors surround my face
I see the brightness of you
Try to spend my pain in you
It's all I've wanted, All this time

To travel the world with you
Is god up there watching you?
To spend a life with you
But the end is so much nearer

I go to the place where the ocean meets the river
The sky goes on forever in my mind and I can see it's gray
If all the reasons could be shown, and I could see you in the light
The flower in the pouring rain, would not be crushed beneath the rock

I'd die for you

Why do the seasons change, and why must it ever rain?
Why must the weekends end, and why must the sunset ever turn to night?
I don't know, why this all happens to me
Still I go on, I travel always towards the sea

I'd die for you

All's I ever wanted was for you to see
Before you my life was misery
As the river flows to the sea
I hear you calling back for me

I'd die for you
Comments