Downface - No Regrets Chords & Tabs

 

No Regrets Chords & Tabs

Downface Chords & Tabs

Version: 1 Type: Tab 0 ratings
1 star 2 stars 3 stars 4 stars 5 stars
comments

No Regrets Tab

Distorted song from a great band, some songs found under the title of
"creed and tool" as the band name.

Tabbed in Drop D tuning
All of guitar 2s pieces in this song are harmonics, guitar 3 is just an added
track put in by the band as there isn't a third guitarist.

INTRO
Guitar 1
|---------------------------------------------------
|---------------------------------------------------
|-2-----------2-----------2-----------2-------------
|-2---3-3-----2---5-5-----2---3-3-----2-----5-5-----
|-0---3-3-3-3-0---5-5-5-5-0---3-3-3-3-0-----5-5-5-5-
|-----3-3-3-3-----5-5-5-5-----3-3-3-3-------5-5-5-5-

Guitar 2 (harmonics)
|---------------------------------------------------
|---------------------------------------------------
|---------------------------------------5-----------
|---7-----------7-----------7-------------5---------
|---------------------------------------------------
|---------------------------------------------------

VERSE
Guitar 1
|-----------------
|-----------------
|-2-----2---------
|-2-----2-----1h3-
|-0-0-0-0-0-0-1h3-
|-------------1h3-

Guitar 2 (harmonics)
|-----
|-----
|-----
|-7---
|---7-
|-----

Guitar 3 (only played twice)
|--------------------
|--------------------
|--------------------
|-8----7----10----12-
|--------------------
|--------------------

CHORUS ("I have no regrets") 
Guitar 1
|---------------------
|---------------------
|---------------------
|-----------------1-3-
|-----------------1-3-
|-3h5-3h5-3h5-3h5-1-3-

intro riffs
verse
chorus
[ Tab from: http://www.guitartabs.cc/tabs/d/downface/no_regrets_tab.html ]
BRIDGE
Guitar 1
|-----------------------------------
|-----------------------------------
|-----7-------5-------7-------5--/7-
|-0---7---3---5---0---7---3---5--/7-
|-0---5---3---3---0---5---3---3--/5-
|-0-------3-------0-------3---------

Guitar 1 (continued)
|------------------------
|------------------------
|-------------5--5-5-5-5-
|-7--7-7-/9-9-5--5-5-5-5-
|-5--5-5-/7-7-3--3-3-3-3-
|------------------------

|---------------------
|---------------------
|---------------------
|-7---8---5---3--2--0-
|-7---8---5---3--2--0-
|-7---8---5---3--2--0-

Chorus
Intro

any questions? andrewbiles@hotmail.com

_________________________
Lyrics:

Laying down in a bed he lived in
Sinking into a dying state
Can't forget the time, the room, the place
Notice the hand as it slowly makes it's way

I Have no...
No room for the dreams I've learned to hate
I Have no...
He's old, he's leaving a lonely place
I Have no...
I can still seem to hear him say
I Have no...

I Have no Regrets
I...Have...No...I Have No Regrets

Thinking as if it were illusion
The love I've learned to embrace
Telling me it is all over 
The promise.......My strength

I Have no...
No room for the dreams I've learned to hate
I Have no...
I'm old and leaving this lonely place
I Have no...
If you listen forever you'll hear me say
I Have no...

I Have no Regrets
I...Have...No...I Have No Regrets

I know......
I know the answer lies in my head
No one can ever take that from me

I'm lost......
I've lost my head again
With the cross looming up before me
My lover's eyes below Me

Yet I have no regrets
Comments