Downface - Alone Chords & Tabs

 

Alone Chords & Tabs

Downface Chords & Tabs

Version: 1 Type: Tab 0 ratings
1 star 2 stars 3 stars 4 stars 5 stars
comments

Alone Tab

Verse/Chorus: It's played acoustic...but you can play it 
with a clean electric

e|-------3-3-3---3-3-3-0--0-0-0-0---0-0-0-0---|
B|-------0-0-0---0-0-0-x--x-x-x-1---1-1-1-1---|
G|-0--0--0-0-0---0-0-0-2--2-2-2-0---0-0-0-0---|
D|-2--2--2-2-2---2-2-2-2--2-2-2-2---2-2-2-2---|
A|-2--2--2-2-2---2-2-2-0--0-0-0-3---3-3-3-3---|
E|-0--0--0-0-0---0-0-0-x--x-x-x-x---x-x-x-x---|

~Solo~
[ Tab from: http://www.guitartabs.cc/tabs/d/downface/alone_tab.html ]
e|-----------------------------------------------------------------------|
B|-----------------------------------------------------------------------|
G|------------------------------------7-5-------5h7p5--------------------|
D|--8b----8p7-7--7-7-7-5-5---2h5---22-----------------8p7p5--------------|
A|-----------------------------------------------------------------------|
E|-----------------------------------------------------------------------|

e|-----------------------------------------------------------------------|
B|-----------------------------------------------------------------------|
G|---0-2-3p2p0------2p0-2------------------------------------------------|
D|-2----------------------2b-0---0h2p0-----------------------------------|
A|-------------------------------------2-0-0-0---------------------------|
E|---------------------------------------------3-3---3-2-3-3-3-----------|

Play this with an electric, but on clean. 
It starts around 2:07... when you've finished add some feedback. 
It should finish around 2:57.
Comments