Downchild Blues Band - Flip Flop Fly Chords & Tabs

 

Flip Flop Fly Chords & Tabs

Downchild Blues Band Chords & Tabs

Version: 2 Type: Bass Tab 0 ratings
1 star 2 stars 3 stars 4 stars 5 stars
comments

Flip Flop Fly Bass Tab

   
Band:Downchild Blues Band
Song:Flip Flop Fly
Tabbed: brian(original_prankstr@hotmail.com)

This song has been done by many different bands but this is
the best recording I've ever heard of it. It's a walking bass line with
a suffle, blues, rock feel.

Standard tuning(G,D,A,E)

Intro 2x

G-------0-3-0--------
D---0-3-------3-0----
A-1------------------
E--------------------

Verse, Chorus, and Solo
[ Tab from: http://www.guitartabs.cc/tabs/d/downchild_blues_band/flip_flop_fly_btab_ver_2.html ]
G-------0-3-0-----------0-3-1-0--
D---0-3-------3-0---0-3---------3
A-1---------------1--------------
E--------------------------------

G---0-3-0---------------0-3---3-3
D-1-------1---------0-3-----3----
A-----------4-3-1-1--------------
E--------------------------------

G-----------------------0-3-0----
D-3-3-----3-1-0-----0-3-------3-0
A-----3-3-------3-1--------------
E--------------------------------

Just Keep Repeating this throughout the whole song
This is a fun song to play if you have the song to play along with
you can get it on Napster-Just search for it.

Any Questions comments, concerns, suggestions please e-mail me.
Comments