Down With Webster - Your Man Chords & Tabs

 

Down With Webster Chords & Tabs

Version: 1 Type: Tab 0 ratings
1 star 2 stars 3 stars 4 stars 5 stars
comments

Your Man Tab

-------------------------------------------------------------------------------
			     YOUR MAN - Down With Webster
-------------------------------------------------------------------------------
Tabbed by: Nick Hepburn
Email: nick8_gnr@hotmail.com

Tuning: Standard
[ Tab from: http://www.guitartabs.cc/tabs/d/down_with_webster/your_man_tab.html ]
Guitar 1
e|-4-4-4-8--------|----3-3-4-1-------|-4-4-4-8--------|----3-3-4-1-------|
B|-6-6-6-9--------|----4-4-6-2-------|-6-6-6-9--------|----4-4-6-2-------|
G|-6-6-6-8--------|----5-5-6-1-------|-6-6-6-8--------|----5-5-6-1-------|
D|----------------|------------------|----------------|------------------|
A|----------------|------------------|----------------|------------------|
E|----------------|------------------|----------------|------------------|
Guitar 2
e|-----------------|--------------|-----------------|----------------------|
B|-----------------|--------------|-----------------|----------------------|
G|-6-6-6-----------|-5--5--10--6--|-6-6-6-----------|-5-5-5-6-6-6-6-6------|
D|-6-6-6-6-6-6-6-6-|-5--5--10--6--|-6-6-6-----------|-5-5-5-6-6-6-6-6------|
A|-4-4-4-6-6-6-6-6-|-3--3--8---4--|-4-4-4-6-6-6-6-6-|-3-3-3-4-4-4-4-4------|
E|-------4-4-4-4-4-|--------------|-------4-4-4-4-4-|----------------------|

This plays through the whole song although guitar two is mainly second half of the 
and chorus only

Enjoy
Comments