Down With Webster - Whoa Is Me Chords & Tabs

 

Down With Webster Chords & Tabs

Version: 1 Type: Tab 0 ratings
1 star 2 stars 3 stars 4 stars 5 stars
comments

Whoa Is Me Tab

   
-------------------------------------------------------------------------------
                             Whoa Is Me  Down With Webster
-------------------------------------------------------------------------------
Tabbed by: Nick Hepburn	
Email:nick8_gnr@hotmail.com	

Tuning:Standard
Intro

Guitar 1                     Repeat Twice
e|-----------------------------------------|
B|-----------------------------------------|
G|-----------------------------------------|
D|-8--8----8-6--6----6-11-11---11----------|
A|-6--6----6-4--4----4-9--9----9-9--9----9-|
E|-------------------------------7--7----7-|
Guitar 2 (Repeats throughout the entire song but becomes subtle)
e|-6---6---6---6---6---6---6---6-----|
B|---7---7---7---7---7---7---7---7---|
G|-----------------------------------|
D|-----------------------------------|
A|-----------------------------------|
E|-----------------------------------|
Verse (Part 1)

Guitar 1
e|-------------------------------------------------|
B|-------------------------------------------------|
G|-------------------------------------------------|
D|-8--8--8--8--6--6--6--6--11-11-11-11-------------|
A|-6--6--6--6--4--4--4--4--9--9--9--9--9--9--9--9--|
E|-------------------------------------7--7--7--7--|
Guitar 2
e|-6---6---6---6---4---4---4---4---6---6---6---6---7---7---7---7---|
B|---7---7---7---7---7---7---7---7---7---7---7---7---7---7---7---7-|
G|-----------------------------------------------------------------|
D|-----------------------------------------------------------------|
A|-----------------------------------------------------------------|
E|-----------------------------------------------------------------|
Part 2
Guitar 1
e|-------------------------------------------------|
B|-------------------------------------------------|
G|-------------------------------------------------|
D|-8--8--8--8--6--6--6--6--4--4--4--4--4--4--3--3--|
A|-6--6--6--6--4--4--4--4--2--2--2--2--2--2--1--1--|
E|-------------------------------------------------|
Guitar 2
e|---------------------------------------------------|
B|---------------------------------------------------|
G|-8------1011-6-------1011-4--------4-4-4-4-3-3-3-3-|
D|-x------x-x--x-------x-x--x--------x-x-x-x-x-x-x-x-|
A|-6------8-9--4-------8-9--2--------2-2-2-2-1-1-1-1-|
E|---------------------------------------------------|







Chorus (Same as the Second Part of the verse)
[ Tab from: http://www.guitartabs.cc/tabs/d/down_with_webster/whoa_is_me_tab.html ]
Guitar 1
e|-------------------------------------------------|
B|-------------------------------------------------|
G|-------------------------------------------------|
D|-8--8--8--8--6--6--6--6--4--4--4--4--4--4--3--3--|
A|-6--6--6--6--4--4--4--4--2--2--2--2--2--2--1--1--|
E|-------------------------------------------------|
Guitar 2
e|---------------------------------------------------|
B|---------------------------------------------------|
G|-8------1011-6-------1011-4--------4-4-4-4-3-3-3-3-|
D|-x------x-x--x-------x-x--x--------x-x-x-x-x-x-x-x-|
A|-6------8-9--4-------8-9--2--------2-2-2-2-1-1-1-1-|
E|---------------------------------------------------|

Solo (Close Enough)
e|------------------------------------------------------------------------|
B|-----------------------------------14p11-14p11-14p11-14p11-14b14b14b14b-|
G|------------------------------------------------------------------------|
D|------------------------------------------------------------------------|
A|6~-8-9-8--9/11--9-11/13-9-----13----------------------------------------|
E|----------------------------11~-----------------------------------------|

e|---------------------------------------------------------|
B|-14b-14b-14p11--11-----------14b-14b-14p11--11-----------|
G|--------------13--13p11-13b---------------13--13p11-13b--|
D|---------------------------------------------------------|
A|---------------------------------------------------------|
E|---------------------------------------------------------|

e|-14p11--11----------------------------------------|
B|------14--14p11-14p11--11-------------------------|
G|---------------------13--13p11-13p11--11----------|
D|------------------------------------13--13p11-13--|
A|--------------------------------------------------|
E|--------------------------------------------------|

e|-----------------------------------------------16b-16b-16b-16br---------|
B|-----------------------14--14h16p14-16p14-16p14-----------------16~~----|
G|-----11--11h13p11-13/15--15---------------------------------------------|
D|-/13---13---------------------------------------------------------------|
A|------------------------------------------------------------------------|
E|------------------------------------------------------------------------|


************************************

| /   slide up
| \   slide down
| h   hammer-on
| p   pull-off
| ~   vibrato
| +   harmonic
| x   Mute note
| b   Bend
| pb  Pre-bend
| br  Bend release
| pbr Pre-bend release
| brb Bend release bend

************************************
Comments