Down To The Bone - The Zodiac Chords & Tabs

 

The Zodiac Chords & Tabs

Down To The Bone Chords & Tabs

Version: 1 Type: Bass Tab 0 ratings
1 star 2 stars 3 stars 4 stars 5 stars
comments

The Zodiac Bass Tab

   
Down To The Bone - The Zodiac (5-string) BASSTAB

Basstab by Jan Bjorklund, Finland; 
jani_bjorklund@yahoo.se 
You are welcome to request for basstabs!
Bienvenidos a pedirme transcripciones para el bajo!
Be sure to use a monospaced font!

TablEdited by Jan Bjorklund for Joe
Tuning : B E A D G 	Time Signature: 4/4

I ignored the first 19 bars in the intro with (keyboard ?)bass and 
this begins at the 20 th bar where the bass kicks in with power.

 tempo 100       |       |        |       |       |       |        
|--------------------------------|--------------------------------|
|(5)-------------------------4---|--------5-------------4-----4---|
|----------(4)-----(3)---3-------|------------4-------------------|
|--------------------------------|3---3---------2-----------------|
|--------------------------------|--------------------------------|

 |       |       |       |        |       |       |       |        
|--------------------------------|--------------------------------|
|--------3---------------2-----2-|--------------------------------|
|------------2-3-------2---------|--------6-----4-5-------5---5---|
|1---1-----------0-----------0---|0---0-----------------5---------|
|--------------------------------|--------------------------------|
[ Tab from: http://www.guitartabs.cc/tabs/d/down_to_the_bone/the_zodiac_btab.html ]
 |       |       |       |        |       |       |       |        
|--------------------------------|--------------------------------|
|5---5-----------------------4-5-|--------5-------------4-----4---|
|------------5-3-3-----3-3-------|------------4-----------------3-|
|--------3-----------------------|3---3---------2-2-------2-------|
|--------------------------------|--------------------------------|

 |       |       |       |        |       |       |       |        
|--------------------------------|--------------------------------|
|--------3---------------2-----2-|--------------------------------|
|------------2-3-------2-----3---|--------6-----4-5-------5---5---|
|1---1-----------0---------------|----------------------5---------|
|--------------------------------|4---4---------------------------|

 |       |       |       |        |       |       |       |        
|--------------------------------|--------------------------------|
|5---5-----------------------4---|--------5-------------4-----4---|
|------------4-3-3-3---3-3-------|------------4-3-----------------|
|--------3-----------------------|3---3-----------2-2-----2-------|
|--------------------------------|--------------------------------|

 |       |       |       |        |       |       |       |        
|--------------------------------|--------------------------------|
|--------3---------------2-----2-|--------------------------------|
|------------2-3-----------------|--------6-------5-5-----5---5---|
|1---1-----------0-0---0-----0---|--------------5-------5---------|
|--------------------------------|4---4---------------------------|


Transcribe! 6.0 transcription http://www.seventhstring.demon.co.uk/
Created with TablEdit http://www.tabledit.com/
Comments