Down By Nine - Last Star Chords & Tabs

 

Last Star Chords & Tabs

Down By Nine Chords & Tabs

Version: 1 Type: Tab 0 ratings
1 star 2 stars 3 stars 4 stars 5 stars
comments

Last Star Tab

   
Last Star

guitar 1
e---o--o--o--o--o-o--o--o-o--0--4-4-2-o-----
b--5--5-----4--4----2--2----2---------------
g-4--4--4--4--4--4-4--4--4-2--2-------------
d-------------------------------------------
a-------------------------------------------
e-------------------------------------------
guitar 2
e-5/7-5-4-o--5/7-5-4-o--5/7-5-4-o-2-4-2-o---
b-------------------------------------------
g-------------------------------------------

e-5/7-5-4-o--5/7-5-4-o--5/7-5-4-o-2-4-4h5-2-o---
b-----------------------------------------------
g-----------------------------------------------

e-5/7-5-4-o--5/7-5-4-o--5/7-5-4-o-2----------------------------
b-------------------------------------------
g-------------------------------------------

guitar1
E,F#,B,F#,C#,E,B,G#,F#-power chords

guitar 2
e-------------------------------------------
b-------------------------------------------
g-9-8-11-9---9-8-13-8---9-8-11-9----9-8-----
d-x-x-x--x---x-x-x--x---x-x-x--x----x-x-----
a-7-6-9--7---7-6-11-6---7-6-9--7----7-6-----
e-------------------------------------------
[ Tab from: http://www.guitartabs.cc/tabs/d/down_by_nine/last_star_tab.html ]
verse chords- E,B,C#,B,G#,F#

verse riff (Listen to song for perfect picking)
b-------------------------------------------
g-9-9-9-9-9-9-9-8-9-9-9-9-9-9-9-8-----------

b-------------------------------------------
g-11-11-11-11-11-11-11-8--9-8---------------

CHORAS
e--------------------------------------------
b-----------------9--------------------------
g--6---4-6-----9-8-8-----9-------------------
d--6-2-4-6---------------x-------------------
a--4-2-2-4---------------7-------------------
e----o---------------------------------------

guitar 1 (breakdown)
clean
e---o--5--4------o-5-4-o----o--4-2-o----o-4-2------
b--5--------5---4----------2-----------2-----------
g-4--4--4--4---4--4-4-4---4--4--4-4---2--2---------

guitar 2
distortion
g-9--8-----11--9----------------------------
d-x--x--9--x---x----------------------------
a-7--7--7--7---7----------------------------
e-------------------------------------------

guitar 1 (YOU TOOK MY LOVE!!)
distortion
e--o----o----o----o----------------------------
b--5----4----4----2-4---------------------------
g--4----4----2----2-2---------------------------

 

Comments