Down By Nine - Beautiful Chords & Tabs

 

Beautiful Chords & Tabs

Down By Nine Chords & Tabs

Version: 1 Type: Tab 0 ratings
1 star 2 stars 3 stars 4 stars 5 stars
comments

Beautiful Tab

   
Hey Everyone Check Out www.DownByNine.com


Chords for intro
C# B A G#
e--o--o--o--o--o--0--------------------------
b--x--x--x--x--x--x--------------------------
g--9--8--6--4--6--8--------------------------
d--x--x--x--x--x--x--------------------------
a--x--x--x--x--x--x--------------------------
e--9--7--5--4--5--7--------------------------

riff 2
E--------------------------------------------------
B----------9---------------9-10---12-10-9-9h10-9---
G-6--11-9-8-9-8--4--8-9-11------2---------------9--
D-6--------------4--------------2----------------6-7-9
A-4--------------2--------------0----------------6-7-9
E------------------------------------------------4-5-7

Verse chords
C#,B,A,G#,A,B



CHORAS
guitar 1 plays
e---------------------------------------------
b---------------------------------------------
g--9--------4---------------------------------
d--9---9----4----7----9-----------------------
a--7---9----6----7----9-----------------------
e------7---------5----7-----------------------
[ Tab from: http://www.guitartabs.cc/tabs/d/down_by_nine/beautiful_tab.html ]
guitar 2 plays
e-o-o-o-2----o-o-o-4-----o-o-o-2-----5-4--2h4 2h4---
b--o-o-o-o----o-o-o-o-----o-o-o-o-----o-o-----------
g---------------------------------------------------
d---------------------------------------------------
a---------------------------------------------------
e---------------------------------------------------


BREAKDOWN
strum these chords
e---------------------x-----------------
b---------------------x-----------------
g---------------------9-----------------
d-6--7--9--2----------x-----------------
a-6--7--9--2----------7-----------------
e-4--5--7--0----------x-----------------

breakdown riff
e------------------------------------------------
b------------------------------------------------
g-9-9-11-9-8-9-9-13-11-8--9-9-11-9-8-9-8---------
d--9----------9------------9------------9-7-6----
a---------------------------------------------7--
e------------------------------------------------

ending riffs (play these notes over the choras riff)
guitrar 1
e-o-2-4-5--o--5-4-2-o-7-5-4-o-2-4-12---
b--o-o-o-o---o-o-o-o-o-o-o-o-o-o-o-----
g--------------------------------------
d--------------------------------------
a--------------------------------------
e--------------------------------------

guitar 2
e-10-9-10-9-10-9-10-17--------------
b--------------------------------------
g--------------------------------------
d--------------------------------------
a--------------------------------------
e--------------------------------------
Comments