Down By Law - Independence Day Chords & Tabs

 

Independence Day Chords & Tabs

Down By Law Chords & Tabs

Version: 2 Type: Bass Tab 0 ratings
1 star 2 stars 3 stars 4 stars 5 stars
comments

Independence Day Bass Tab

Song Title: independence day
Artist: down by law
----------------------------------------------

				VERSE(x4)

G---------------------------------------------
D---------------------------------------------
A---------------2-----------------------------
E-000000000000-----2222222--5-55--7-77--------

				CHORUS(x4)
[ Tab from: http://www.guitartabs.cc/tabs/d/down_by_law/independence_day_btab_ver_2.html ]
G------------------------------
D------------------------------
A-------2-22-------------------
E-0-00--------2-22--5-55-------

then... verse 4x
	chorus 4x

thats the whole song exept for the last 5 seconds which i couldn't really 
get.just make something up i guess.

Submitted by:  Steve Webster (webster@limestone.kosone.com)
Comments