Down By Law - I Would Walk 500 Miles Chords & Tabs

 

I Would Walk 500 Miles Chords & Tabs

Down By Law Chords & Tabs

Version: 1 Type: Tab 0 ratings
1 star 2 stars 3 stars 4 stars 5 stars
comments

I Would Walk 500 Miles Tab

   
song: I would walk 500 miles
band: down by law
tabbed by: FelixThaPunkCat000

there are to guitars in this song, gtr1 plays the main riff and gtr2 screws around 
with feedback and some single notes like: 
 B----
 G-9--
 D--9-
I tabbed only the pieces that gtr 2 plays more than once.

Verse
-----
gtr 1
D-------------------------------------------------------
A-2--2--2--2-2-2-2--2--2---2-2-2--2--2--2-2-2-2--2--2---
E-0--0--0--0-0-0-0--0--0---0-0-0--0--0--0-0-0-0--0--0---
 ***********************PM***************************

D------------------------------2-2-0-4-4-0--------------
A-2--2--2--2-2-2-2--2--2---2-2-0-0-0-2-2-0-2--2--2--2-2-
E-0--0--0--0-0-0-0--0--0---0-0-------------0--0--0--0-0- 4x
 ***********************PM*****************************(last time release pm)

gtr 2
feedback stuff in the first part of the verse and in the second part:
G-99-99999-99-99999-------------------99-99999-
D-99-99999-99-99999-77-77777-99-99999-99-99999-
A-77-77777-77-77777-77-77777-99-99999-77-77777-
E-------------------55-55555-77-77777----------
[ Tab from: http://www.guitartabs.cc/tabs/d/down_by_law/i_would_walk_500_miles_tab.html ]
Chorus
------
gtr1&2
G-----------------2222222244444444-
D-22222222222222222222222244444444-
A-22222222222222220000000022222222-
E-0000000000000000-----------------


Bridge
------
gtr1&2
G-----------------22224444----------
D-222222222222222222224444----------
A-22222222222222220000222222222222--
E-0000000000000000--------00000000--

Last verse (a bit diffrent)
----------
gtr 1
D-------------------------------------------------------
A-2--2--2--2-2-2-2--2--2---2-2-2--2--2--2-2-2-2--2--2---
E-0--0--0--0-0-0-0--0--0---0-0-0--0--0--0-0-0-0--0--0---
 ***********************PM***************************

D------------------------------2-2-0-4-4-6---------4-----------------------
A-2--2--2--2-2-2-2--2--2---2-2-0-0-0-2-2-4----4----2-rest--2--2--2-22222222
E-0--0--0--0-0-0-0--0--0---0-0----------------2------------0--0--0-00000000
 ***********************PM****************                 *********release

Verse
Chorus
Verse
Chorus
Bridge
Verse
Chorus
Bridge
Last verse
Chorus (fade out)

So that's it, if you have any suggestions pleas mail me at 
felix_snuffel@hotmail.com












Comments