Down By Law - Haircut Chords & Tabs

 

Haircut Chords & Tabs

Down By Law Chords & Tabs

Version: 2 Type: Bass Tab 0 ratings
1 star 2 stars 3 stars 4 stars 5 stars
comments

Haircut Bass Tab

---------------------------------------
HAIRCUT /  Down By Law
---------------------------------------

verse
-----------------||-------------|
-----------------||-------------|
-------5--------||-------------|
--7-7----5-7--||-------7-----|
             (7x)      (8x)
chorus
--------------|--------------------||---------------|
--------------|--------------------||---------------|
--------------|--------5-----5---||---------------|
--0-0-0-0--|--5--5-----5-----||---------7-----|
                            (3x)        (8x)
[ Tab from: http://www.guitartabs.cc/tabs/d/down_by_law/haircut_btab_ver_2.html ]
bridge
-----------|--------------------|----------|--------R
-----------|-------------------||----------|--------E
---5------|-------7-5--------||----5---|--------S
------5---|--0-0-------7-5-||------5--|---0----T


------|--------------------------------|------|------------------R
------|--------------------------------|------|------------------E
------|-------------------5--5-5-5--|------|----------5------S
--0--|----0-0-0---5-5-5-----------|--0--|--5-5-5---------T
   8x                                 8x


||--------------------||-----------
||--------------------||-----------
||--------5----------||-----------
||--7--7-----5--7--||------0----
                          END
Comments