Down By Law - Gruesome Gary Chords & Tabs

 

Gruesome Gary Chords & Tabs

Down By Law Chords & Tabs

Version: 2 Type: Bass Tab 0 ratings
1 star 2 stars 3 stars 4 stars 5 stars
comments

Gruesome Gary Bass Tab

Song: Gruesome Gary
Band: Down by law
Album: ...Punk-o-Rama 2
tabbed by: Carlos Pino

   verse
G:---------------------------------------------------------------
D:---------------------------------------------------------------
A:---------------7-------------------7-------------------------------
E:-7-----5--5------7--7---5--5-------7--7-7-7-7-5-5-5-5-5-5-7-7
[ Tab from: http://www.guitartabs.cc/tabs/d/down_by_law/gruesome_gary_btab_ver_2.html ]
G:---------------------------------------------------------------
D:---------------------------------------------------------------
A:---------------------------------------------------------------
E:-7-7-7-7-7-7-7--7-7-7-7-5-5-5-5-5-5--7-7-7-7--5-5-5-5--7-7-7-7

   chorus
G:---------------------------------------------------------------------------
D:---------------------------------------------------------------------------
A:--------------------------7-7--------------------7-7------------------7-7---
E:-5-5-5-5---7-7--5-5--------7---7-7--5-5-------7--7-7--5-5--------7

outro : same as chorus

Comments