Down - Stone The Crow Chords & Tabs

 

Stone The Crow Chords & Tabs

Down Chords & Tabs

Version: 2 Type: Tab 0 ratings
1 star 2 stars 3 stars 4 stars 5 stars
comments

Stone The Crow Tab

   
  Here's the tab for Stone The Crow. I typed it out from 
 a guitar mag so it's correct.

                     Stone The Crow by DOWN 
             

      This tab is from a guitar mag so it should be
      correct. The song is pretty easy, but the solo
      is two guitars so it's kinda messy if you
      ask me. And fuck, you'd better learn the
      song cause it took me ages to type it.
        If you want to donate to my beer fund,
      contact me at santala@mpoli.fi for further
      info. Thanks!


Tune down one step (D)       
~= vibrato   vibr.=vibrato sl=slide
^= bend b= bend             /=slide
    
    
   rhy fig1 Gtr1  semi-clean tone                   1 step
  D------------------------------------|------------------------------
  A------------------------------------|------------------------------
  F------------------------------------|------------------------------
  C------4h6-----6sl4-----(2)h4~~~--4--|------2h4-4b-r(4)p2------------------------
  G-----------4--------2---------------|--2h4----------------4-4--------
  D------------------------------------|---------------------------4--

  d-----------|-------------------------------------------------------
  a-----------|------------------------------------------------------
  f-----------|------------4------------------------------------------
  c------2h4--|---(4)sl6-----(6)sl4--2-(2)h4~~~~4p2-------------------
  g--2h4------|-------------------------------------------------------
  d-----------|--------------------------------------------------------
 ____   
|    Gtr2 distorted                            Riff A                    1/2
|  d-----------------------------------------|----------------------------
|  a-----------------------------------------|------------------------------
|  f-----------------------------------------|-------------------------------
|  c-----------------------------------9-----|(9)h11~~~~~~~~~~~11sl13--13b-grad-----
|  g------------------------------9h11-------|-----------------------------------
|  d-----------------------------------------|----------------------------------
|                                 end Rhy fig1
|   Gtr1 continued     1       1        1/2    Rhy fig 1A
|  d-----------------------------------------|----------------------------------
|  a-----------------------------------------|----------------------------
|  f-----------------------------------------|-----------------------------
|  c-----------------------------------------|---4h6----6sl4--(2)h4~~~~4---
|  g---(4)sl6--4-2h4-4b--r--(4)b----2b grad.-|-------4-------2---------------------------------------
|  d-----------------------------------------|---------------------------------
|______


|------- Gtr. II
|              1/2       1/2
|d----------------------------------------------------------------
|a----------------------------------------------------------------
|f--------------------------------------------------------------
|c-(13)--13--13b---13--13b---13--11sl9--------------------------
|g-----------------------------------------------------------------
|d------------------------------------------------------------------
|  Gtr.I      full
|------------------------------------------------------------------
|------------------------------------------------------------------
|-----------------------------------------------------------------
|------2h4---4b-r(4)p2-------------2h4----------------------------
|--2h4-----------------4-4-----2h4--------------------------------
|---------------------------4--------------------------------------
|
|---------


|-----------
|   Gtr.II                             1/2             1/2
|------------------------------------------|------------------------------------
|------------------------------------------|----------------------------
|------------------------------------------|---------------------------
|-(9)h11~~~~~~~~~~~~11sl13--------13b grad-|-(13)-13 13b--13--11--(11)\-----9---
|------------------------------------------|----------------------------9h11
|------------------------------------------|-------------------------------
|  Gtr.1                                                           end rhy fig 1A
|------------------------------------------|---------------------------
|------------------------------------------|---------------------------
|--------4---------------------------------|----------------------------
|--4h6-------6sl4---2--(2)h4~~~~~~~4p2-----|4h6---4---2h4--2~~~~~~~~~~~----
|------------------------------------------|---------------------------4-(4)/
|------------------------------------------|---------------------------------
|__________________



  w/ rhy fig 1A             1/2                1/2       1/2
|--------------------------------|------------------------------------------
|--------------------------------|-------------------------------------------
|--------------------------------|------------------------------------------
|---9h11------11sl13----13b grad-|-(13)--13--13b---13--13b---13--11sl9------
|--------------------------------|-------------------------------------------
|--------------------------------|------------------------------------------

                               PM.........
|-------------------------------------------------------------------------
|---------------------------------------------------------------------
|-----------------------------------------------------------------------
|---9h11~~~~~~~9h11p9-----------------------------------------------9--
|---------------------11--(11)\---7-9-11-9----7p5h7-----------9h11------
|-------------------------------9---------------------9--(9)/------------

 1st verse w/ rhy fig 1A
  Riff B               1.A bout of...
|-------------------------|---------------------------|-----------------
|-------------------------|---------------------------|-------------------
|-------------------------|---------------------------|------------------
|----9h11vibr_____________|(11)--------(11)\--------9-|-9h11vibr________--
|-------------------------|--------------------9h11---|--------------------
|-------------------------|---------------------------|----------------------

                              w/ rhy fig 1             1/2      1/2     1/2
|---------------------------|-----------------------------------------------
|---------------------------|-----------------------------------------------
|---------------------------|--------------------------grad--------------------
|---(11)vibr._____11\-----9-|-9h11vibr.___11sl13----13b-----13-13b-13-13b-13-11/9
|--------------------9h11---|------------------------------------------------
|---------------------------|----------------------------------------------
                                                         end RiffB
   w/ fill 1                    1/2     1/2    1/2     1/2
|--------------------------------------------------------------|------------
|----------------------------grad------------------------------|----------
|--------------------------------------------------------------|------------
|--9h11vibr---11h13----13--13b-r------13b-r--13b-r---13b--(13)\|--------------
|--------------------------------------------------------------|--------------
|--------------------------------------------------------------|--------------
 Half time feel CHORUS
Rhy fig 2
-----------------------------------------------------| ----------------------
-----------------------------------------------------|------------------------
--------6----xx-9-9-9---(9)/11-11-11\-6---6----------|--------------------
-4h6----6----xx-9-9-9---(9)/11-11-11\-6---6----------|--------------------
---4----4----xx-7-7-7---(7)/9--9--9\--4---4------4h7-|---------------------
----------------------------------------------4h7----|-------------------

                                             end rhy fig 2
-----------------------------------------------------------------
------------------------------------------------------------
------6---xx--------------------6---6-------------------------
4h6---6---xx-2-2--xx-4--x-2---x-6---6---------------------------
--4---4---xx-2-2--xx-4--x-2---x-4---4------4h7-------------
-------------0-0--xx-2--x-0---x---------4h7----------------


 yesterday_____
-------------------------|-----------------------------------------------
-------------------------|----------------------------------------------
---------6----xx-9--9--9-|(9)/11-11--11\6---6------------------------
-4h6-----6----xx-9--9--9-|(9)/11-11--11\6---4------------------------
---4-----4----xx-7--7--7-|(7)/9--9---9-\4---4-------4h7-----------------
-------------------------|-----------------------4h7-----------------------



     Fill1


------------------|
------------------|
----------feedback|
-----------(11)---|-(11)------------------------
----------------  |
------------------|-----------4/14-\-------------



 half time feel continued
                            w/ rhy fill 1A                 end halftime feel
--------------------------|-------------------------------------------------
--------------------------|--------------------------------------------------
-------6----x-x-----------|-------------6---(6)/-------------------------
-4h6---6----x-x-2--2--x-x-|-4--x-2---x--6---(6)/--------9---------------------
---4---4----x-x-2--2--x-x-|-4--x-2---x--4---(4)/---9h11------------------------
----------------0--0--x-x-|-2--x-0---x------------------------------------------



    rhy fill 1A

----------------------------
----------------------------
-------------------6--------
-------4--x-2---x--6------------------4h6-------
-------4--x-2---x--4----------------------7---------
-------2--x-0---x----------------------




w/ rhy fig 1A & Riff A

-----------------------------------------------------------------------------
---------------------------------------------------------------------------
-------------------------------------------------------------------------
----9h11vibr.._______________________________________________________________
--------------------------------------------------------------------------
---------------------------------------------------------------------------

w/ rhy fig 1      & fill2                                        end RiffA1
-----------------------------------------------------------------------------
----------------------------------------------------------------------------
------------------------------------------------------------------------------
---(11)vibr.________________________________________________________-----9----
--------------------------------------------------------------------9h11--------
------------------------------------------------------------------------------



    Fill2


 ---------------------------------------|---------------
----------------------------------------|-----------------------
------------------------9---------------|---------------------------
-----9h11vibr.....-9h11---11-9h11vibr...|-(11)vibr......(11)\-----9----
----------------------------------------|---------------------9h11-------
----------------------------------------|---------------------------------



2nd, 3rd verses
w/ rhy fig1A &riff B

RiffB
C-9h11vibr...................................................------
g


Riff B2
 w/ rhy fig1

C---------(11)---------
          feedback the whole time,pitch C#



at the end, play this:                    Listen to the record!


d---------------------------------------------9/16\4/12\



HALF TIME FEEL
  Chorus w/ rhy fig 2 (2 times)

Ok, here goes: the SOLO!
It's actually 2 guitars!
[ Tab from: http://www.guitartabs.cc/tabs/d/down/stone_the_crow_tab_ver_2.html ]
   1/2   full         This bar is both guitars
------------------------------------------------------------full------------
----------------------------------------full------------------------------
-11b---11b-----11p9-------------------11b----11--9h11-9-(9)b--------9---
---------------------11-11---9h11p9-------------------------------11------
--------------------------------------------------------------------------
--------------------------------------------------------------------------

 Gtr I
---------------------------------------|---------------------------------
---------------------------------------|-----------------------------9---
--------------------9----11------------|-----------------------------9-----
--11p9----9-11p9-11----11--9-11-11-9---|-----------9-9h11vibr........----
-------11----------------------------11|-9\7-7-9/11----------------------
---------------------------------------|-------------------------------
|
|
|     and Gtr II
---------------------------------------|----------------------------------
---------------------------------------|-----------------------------
--11p9---------------------------------|--------------------------------9
-------11-11-----11p9------9-11p9----9-|-----------------11vibr.....9h11
----------------------11\9--------11---|11p9----9------11---------------
---------------------------------------|-----12-----------------------------


      full hold                                    full
------------------------------------------------|--------------------1/2----
-x-12b---------r(12)p9--------------------------|----12-------------grad------
-x--------------------11-11---11-11p9-11-11p9-11|11b----11-11p9h11-9b------     AH
------------------------------------------------|-----------------------6/11-11 11 9
------------------------------------------------|-------------------------------
------------------------------------------------|----------------------------
|                                                                 AH pitch G#
|
|
-----full---------------------------------------|--------------------------
----------12------------------------------------|12p9----------------full----
--11b----------11p9--11-------9-11p9--11-11p9---|-----9-11----11--9-9b----
----------------------------------------------11|-------------------------11--11p9
------------------------------------------------|---------------------------
------------------------------------------------|---------------------------


---------------------------------------------------------------------------
----------------------------------------------------------------------------
-----AAAAAAAAAAAAAAAAAAAHHHHGGHH----------------------------------------
------------------------forget this bar----------------------------------
----------------------------------------------------------------------------
------------------------------------------------------------------------------
|
|
|
----------------------------1/2-----------|----------------------------------
------------------------------------------|--------11-----9-------xx--------
-----------9------9h11-11-11br--11-11p9---|--------11-----9-------xx---------
--9h11--11------------------------------11|9h11-11-----11---------------------
---------------11-------------------------|----------------------------------
------------------------------------------|-------------------------------------
|
|
|
------------------------------------------|-----------------------------------
----------------1/2-----------------------|----------------------1/2----------
-----9---pm...-9b-------------------------|---------------9--(9)b-----------
9h11-----11-11-----11-11---9-11p9-11\9----|------9-11--11---------------------
------------------------------------------|-9/11-------------------x-pick slide
------------------------------------------|------------------------x---------


      1/2    full                              full             full   1/2
---14b-----14b-hold-14r14p12-----------------14b----14-12h14-12-b-----------
-----------14b-hold---------14-14---12h14p12-------------------------14b----
--------------------------------------------------------------------------
----------------------------------------------------------------------------
---------------------------------------------------------------------------
---------------------------------------------------------------------------
|
|
|   1/2      full
--14b------14b-hold-14r14p12-------------------------------------------------
----------------------------14.....----------------------------------------
------------------------------check above bar for the rest------------------
----------------------------------------------------------------------------
----------------------------------------------------------------------------
--------------------------------------------------------------------------


----------------------------------------------------------------------------
--r14---12-14-14---12h14p12---------------------------------------------------
---------------------------13\11--11-9--11p9---9------------------------9-----
---------------------------------------------11--11-11-11----11-9h11-11-------
-------------------------------------------------------------------------------
-----------------------------------------------------------------------------
|
|
|
------------------------------------------------------------------------------                         ----------------------------------------------------
r14p12h141414-12h14p12-------------------------------------full--------------
----------------------131311-9h11p9----------9-11p9----9--9b---------9-9------
-----------------------------------11p9-9h11--------11-----------11----------
----------------------------------------------------------------------------
----------------------------------------------------------------------------

     1/2        1/4                        full              1/2
------------------------------------------------------------------------------
----------------------------------------------------------------------------
---9b----11---9b-------9-------------9h11-11b----11-9h11--9-9b------------------
--------------------11----11-11--9h11----------11--------------11-11p9-----
----------------------------------------------------------------------11-9---
-----------------------------------------------------------------------------
|
|
|    1/2                1/4                1/2                 1/2   1/4
---------------------------------------------------------------------------
-----------12-----------------------------------12--------------------------
---11b-------11p9---11-9b-------------9-9-11b------11---9h11-9-9b---9b------
---------------------------11-9-11----------------------------------------11-
---------------------------------------------------------------------------
---------------------------------------------------------------------------

                                             1/2    w/rhy fills 1&1A
-----------------------------------------|-----------------------------------
-----------------------------------------|---------------------------------
------------------------------------9-11-|-11b-----9h11-9---------------------
--------9-9-9-9-9h11-11-9---------9------|----------------------------------
---9h11--------------------11-10---------|-----------------------------------
-----------------------------------------|------------------------9/14\----
|
|
|                                            1/2              1/2
-----------------------------------------|-----------------------------------
------9----------------------------------|----------------------------------
------9---11-9-11-9----------------------|-11b-r9---------------------------
---11------------------11-11-11---9h11p9-|--------11p9----9--9b-------------
-----------------------------------------|-------------11--------------------
-----------------------------------------|--------------------------14\-----
 RIFF C
 w/rhy fig 1A & riffs A & A1
                                              1/2
---------------------------------|--------------------------------|----------
----------12---------------------|--------------------------------|----------
----11/13----13\11--9-h11^^^^^11-|-----9h11-11b-r11p9-------------|----------
---------------------------------|9h11----------------11-9h11^^^^^|----------
---------------------------------|--------------------------------|-----------
---------------------------------|--------------------------------|----------


                                          1/2
 --------------------------------|--------------------------------|-----------
-------12------------------------|--------------------------------|-----------
-11/13----13\11-9-h11vibr.--11p9-|------11b--11-r-9h11vibr.-------|-----------
---------------------------------|---------------------------11-\-|---------
---------------------------------|--------------------------------|-------
---------------------------------|--------------------------------|------------


  w/rhy fig 1
------------------------------------|
--------12--------------------------|
--11/13-----13\11--9-h11vibr.----11p|
------------------------------------|
------------------------------------|
------------------------------------|

              1/2
----------------------------------------|--------------------------------------
----------------------------------------|------------------------------------
-------9h11-11b-r11p9----------------9--|--------------------------------------
--9h11----------------11-p9------9h11---|-----------------------------------
----------------------------------------|--------------------------------------
----------------------------------------|---------------------------------------

                                                                  (end riff C)
                                                1/2              1/2
--------------------------------------------|----------------------------------
-----------12-------------------------------|----------------------------------
-----11/13 -----13\11-9--h11vibr....----11p9|-11b--11-r-9h11-9--9b--------------
--------------------------------------------|-------------------------11-\---
--------------------------------------------|---------------------------------
--------------------------------------------|----------------------------------



Coda:

  w/ last bar of rhy fig 2  then w/ rhy fig 2 (1 & 3/4 times)

then rhy fills 1, 1A & 1B

   "I never stoned the crow ,.........stoned the crow,....no....no"

then w/rhy fig 1A and riffs A1 B1 B2 C


HALF TIME FEEL
                                        1/2
-----------------------------|-----------------------------------------------
-----------------------------|---------------------------------------------
-----------------------------|------------------------------------------------
-----------------------------|-----2-4-4b---r-2----------------------------
------2--2h4p2----2h4vibr...-|-2-4--------------4-2h4------------------------
--2h4----------4-------------|-------------------------4/10\------------------

                                       full              1/2
------------------------------------|----------------------------------------
------------------------------------|-----------------------------------
------------------------------------|---------------------------------------
-------------------2h4vibr....--4-2-|-4b----4--2-4-2--(2)b----2/--------
-------2--2h4p2---------------------|-----------------------------------------
---2h4------------------------------|----------------------------(12)\-------


rhy fill 1B                             fill 3
                                              full         1/2
 ---------------------------------       ---------------------------------
------------------------------------     ---------------------------------
---------------6-----(6)/-----------     ---------------------------------
------4--x2---x6-----(6)/------------    ----4b--4-2-4-2--2b--------------
------4--x2---x4-----(4)/---------     --------------------------4---------
------2--x0---x-----------------------  -----------------------------------




   full                          w/rhy fig 1A (1,5 times)W/riffs A C
-------------------------------|--------------------------------------------
-------------------------------
Comments