Down - Stained Glass Cross Chords & Tabs

 

Stained Glass Cross Chords & Tabs

Down Chords & Tabs

Version: 1 Type: Tab 0 ratings
1 star 2 stars 3 stars 4 stars 5 stars
comments

Stained Glass Cross Tab

Down
 Stained Glass Cross

Standard Tuning
This is a badass song
[ Tab from: http://www.guitartabs.cc/tabs/d/down/stained_glass_cross_tab.html ]
Guitar 1
E----------------------------------------------------------------
B----------------------------------------------------------------
G------------------13--------------------------------------------
D------------------13--------------------------------------------
A--11----10--------11-----11----10-------------------------------
E-----11----10---------------11-----10---------------------------
Guitar 2
E----------------------------------------------------------------
B----------------------------------------------------------------
G----------------------------------------------------------------
D----------------------------------------------------------------
A--11----10---------------11----10----------6-5-4----------------
E-----11----10--4---7-6-5----11----10--1/3-----------------------
 
E----------------------------------------------------------------
B----------------------------------------------------------------
G----------------------------------------------------------------
D--11-14-11------------------------------------------------------
A-----------14-12-14-12----------12-12-14-12---------------------
E-----------------------14-12-14-------------12-14---------------


E----------------------------------------------------------------
B----------------------------------------------------------------
G-11--9----------------------------------------------------------
D-11--9--9--9--7--4----------------------------------------------
A-9---7--9--9--5--2----------------------------------------------
E--------7--7--5--2----------------------------------------------

 Solo...small as hell
E----------------------------------------------------------------
B----------------------------------------------------------------
G----------------------------------------------------------------
D--11-14-11------------------------------------------------------
A-----------14-12-14-12------------------------------------------
E-----------------------14-12-14----12-12-12-12-12-h14-----------
                                    ..............

Tabbed by Will Haas
Comments