Down - Rehab Chords & Tabs

 

Rehab Chords & Tabs

Down Chords & Tabs

Version: 1 Type: Tab 0 ratings
1 star 2 stars 3 stars 4 stars 5 stars
comments

Rehab Tab

Title: Rehab
Artist: Down
Ablum: Nola


This is my first attempt in tabbing a song so go easy on me. This will basically give you the idea of it.



| ----------- |
|------------ |
|------------ |
|------------ |
| ------12\-- |
| -0-0--12\-- |
  ....

3 times
| ---------------------------------------------------------------------------------- |
| ---------------------------------------------------------------------------------- |
| ---------------------------------------------------------------------------------- |
| --5-h-7-------------7------------5--7---------------------5----------------------- |
| -------------0--0---------0--0--------------0--5-h-7-----------5------------------ |
| ---------------------------------------------------------------------------------- |
              ......       ......            ...   

| ---------------------------------------------------------------------------------- |
| ---------------------------------------------------------------------------------- |
| ----------------------7^--7^--5-\-4----------------------------------------------- |
| ----------5--5-------------------------------------------------------------------- |
| --0-0----3--3------------------------------------------------------------------ -- |
| ---------------------------------------------------------------------------------- |
   ....  

3 times
| ---------------------------------------------------------------------------------- |
| ---------------------------------------------------------------------------------- |
| ---------------------------------------------------------------------------------- |
| --5-h-7------------7-p-5---------5--7-----------------5--------------------------- |
| ------------0--0--------------0------------0--5-h-7---------5--------------------- |
| ---------------------------------------------------------------------------------- |
             .....             ...          ...     
[ Tab from: http://www.guitartabs.cc/tabs/d/down/rehab_tab.html ]
| ---------------------------------------------------------------------------------- |
| ---------------------------------------------------------------------------------- |
| ----------------------7^--7^--5~---/-14~------------------------------------------ |
| ----------5--5-------------------------------------------------------------------- |
| --0-0-----3--3-------------------------------------------------------------------- |
| ---------------------------------------------------------------------------------- |
   ....  

| -------------------------------------------------------------------------------------------------------------------------------
| -------------------------------------------------------------------------------------------------------------------------------
| ------------------------------------------------------------5^----------------------------------------------------7^--5--------
| --5-h-7----------7-p-5----------5--7---------5-h-7---------------7--------5-h-7------7--7------5-h-7---------------------------
| -----------0--0-------------0-----------0------------0---------------0------------0---------0--------------0-------------------                             
| -------------------------------------------------------------------------------------------------------------------------------
            .....            ...         ...          ...             ...          ...           ...        ...
     
 -------------------------------------------------------------------------------------- |
 -------------------------------------------------------------------------------------- |
 -------------------------------------------------------------------------------------- |
 --5-h-7---------7--7--------7--5---------------------------------------------5~------- |
 ------------0----------0-------------7--6--5--3-------------3--5--6--7---------------- |
 ------------------------------------------------------3--3---------------------------- |
            ...        ...            

| ----------------------------------------------------------------------------------- |
| ----------------------------------------------------------------------------------- |
| --------------------------------------------------------------------------7^--5~--- |
| --7--5----------------------------------------------------------------------------- |
| ----------7--6--5--3--------------------------------------------------------------- |
| --------------------------3--0--/-7^---0--3--0--/-7^--0--3--0--/-7^---0------------ |
                                   

~peace~
Comments