Down - Lies I Dont Know What They Say But Chords & Tabs

 

Lies I Dont Know What They Say But Chords & Tabs

Down Chords & Tabs

Version: 1 Type: Tab

Lies I Dont Know What They Say But Tab

Down - Lies i don't know what they say but...
Down - II
Tuning is in C# (tune down 1 1/2 steps from standard)
R.I.P. Dimebag Darrell

Slow Jazz Tempo
[ Tab from: http://www.guitartabs.cc/tabs/d/down/lies_i_dont_know_what_they_say_but_tab.html ]
e--------------------------|
B---------------------H-P--|
G----5----5-----5----5^7^5-|  Repeat 4X
D----5----5-----5----5-----|
A--0----0-----5----5-------|
E--------------------------|
                           1/2  P    Full Bend
e----------------------------------------------|
B----------------------------------------------|
G--------------------------7^8^7^5----7^9------|
D----------------------------------------------|
A-----7---8---9---10~~~------------------------|
E---8---8---8---8------------------------------|

Solo is in F#