Down - Lies Chords & Tabs

 

Lies Chords & Tabs

Down Chords & Tabs

Version: 1 Type: Bass Tab 0 ratings
1 star 2 stars 3 stars 4 stars 5 stars
comments

Lies Bass Tab

Song: Lies, I don't know what they but...
Insrument: Bass Guitar
Artist: Down
Album: Down II
Tabbed by: JOhnny G
Tuning: standard

[ Tab from: http://www.guitartabs.cc/tabs/d/down/lies_btab.html ]
G:--------|--------------------------------------------|
D:-----4--|---4p2---------------2h4------------------.-|
A:--------|-------4-2-2---2-2h4----------------------.-|
E:---2----|-2-----------------------2-2----------------|
     ^ ^
only play this the first time
     

 sometimes i feel....
G|-----------------------------------------------------------|
D|----4-2-------------------2-4------4p2--------------2h4----|
A|--------4-2-0-------0-2-4--------------4-2-2--2-2h4--------|
E|--------------3-0-2-----------2--2----------------------2--|

i haven't figured out the next parts 
yet so this is all i can give you                 
Comments