Down - Jail Chords & Tabs

 

Jail Chords & Tabs

Down Chords & Tabs

Version: 1 Type: Tab 0 ratings
1 star 2 stars 3 stars 4 stars 5 stars
comments

Jail Tab

   
DOWN

Jail

D tuning

Main riff:

4X 1-3 4th 4X
G----------|-------|-------|-----------------| Keep Repeating
D-------7--|-------|---9-7-|-------5---------| Tune down to D
A---7------|-7---7-|-7-----|---5-------5---5-|
E-5---5----|---5---|-------|-3---3-------3---|

[ Tab from: http://www.guitartabs.cc/tabs/d/down/jail_tab.html ]
Play this forever.
This is the little harmony part in the middle,
it's clean, right before the arpeggio, listen to it when you play it or
listen on the song.

Remember tune down to D
then
G-----16--------|--12^14-12~~-12^14-12-12^14----
D--14-----------|----------------------------14-
A---------------|-------------------------------
E---------------|-------------------------------
Repeat numerous repeat
times, not sure
off the top of
my head


Comments