Down - Hail The Leaf Chords & Tabs

 

Hail The Leaf Chords & Tabs

Down Chords & Tabs

Version: 2 Type: Tab 0 ratings
1 star 2 stars 3 stars 4 stars 5 stars
comments

Hail The Leaf Tab

   
"Hail The Leaf" by Down
off of the album NOLA

Tabbed by Krakpot (ehusney@hotmail.com)
http://www.dracon32.com/evan


/ slide
^bend
H-Hammer P-Pulloff
A-Artificial Harmonic

Intro and Verse Riff
Sounds best UP-picking, ie hit the d first

D-9--10-10-10--9-9-9--/13-|-9--10-10-10--9-9-9--\6-|
A-0---0--0--0--0-0-0----0-|-0---0--0--0--0-0-0---0-|
E-------------------------|------------------------|

Chorus

D------------------------|-------------------0-2-0-------
A------P--2-----2----P--2|---------2-----2----H-P--0-2-0-
E-0-0-3-0---0-3---0-3-0--|-0-0-3-0---0-3---0--------H-P--
[ Tab from: http://www.guitartabs.cc/tabs/d/down/hail_the_leaf_tab_ver_2.html ]
D---------A-----A-------A|---------A-------------------
A---------2-----2-------2|---------2------5-5-5--3-3-3-
E-0-0-3-0---0-3---0-3-0--|-0-0-3-0---0-0--3-3-3--1-1-1-

Variation of Intro Theme

D-10-10-10--12-12-12--/14-
A--0--0--0---0--0--0----0-
E-------------------------

Bong......

D---------------|---------------------------------|-----------
A-5--3-3-3-3--3-|-5-5-5--3-3-3-------5--3-3-3-----|-----------
E-3--1-1-1-1--1-|-3-3-3--1-1-1--/6^--3--1-1-1--/6^|-0-0-0-etc-

D----------|----------9---------9----7/9---7/9|
A--all NH--|----------7---------7----5/7---5/7|
E-7-7-7-7-7|-0-0-0-0----0-0-0-0---0-0----0----|

Rock on!
Comments