Down - Hail The Leaf Chords & Tabs

 

Hail The Leaf Chords & Tabs

Down Chords & Tabs

Version: 1 Type: Bass Tab 0 ratings
1 star 2 stars 3 stars 4 stars 5 stars
comments

Hail The Leaf Bass Tab

 This is about as close as it gets. Have fun with it.
 If you have comments or corrections, Mykeyarger@yahoo.com




(INTRO)
|-----------------------------
|-----------------------------
|----------------------------- x4
|--0-0------------------------
|-----------------------------

|-----------------------------
|-----------------------------
|-----------------------------
|0-0-0-0-0-0-0-0-0-0-0--------
|-----------------------------

VERSE
|-------------------------------------------
|-------------------------------------------
|-------------------------------------------  x2
|-0-3-3-0-0-3-0-5b-0-3-3-0-0-3-0-3b--------- 
|-------------------------------------------
                                              
|-------------------------------------------
|-------------------------------------------
|-------------------------------------------  x2
|-0-3-3-0-0-3-0-5b-0-3-3-0-0-3-0-3-3-3-1-1-1
|-------------------------------------------

SOLO
|-----------------------------------------------------------
|-----------------------------------------------------------
|-----------------------------------------------------------
|-3-3-3-1-1-1/5--3-3-3-1-1-1/5--3-3-3-1-1-1/5--3-3-3-1-1-1/5
|-----------------------------------------------------------
[ Tab from: http://www.guitartabs.cc/tabs/d/down/hail_the_leaf_btab.html ]
 INTERLUDE
|---------------------------------------------------------------
|---------------------------------------------------------------
|--------------------------------------------------------------- x2
|--3-3-3-1-1-5-3-3-1-5--3-3-3-1-1-5-3-3-1-5--3-3-3-1-1-5-3-3-1-5
|---------------------------------------------------------------

 

|--------------------------------------------------------
|--------------------------------------------------------
|--------------------------------------------------------
|-0-0-0-0-0-0-0-0-0-0-0-0-0-0-0-0-0-0-0-0----------------
|--------------------------------------------------------

 2nd INTERLUDE

|--------------------------------------------------------
|--------------------------------------------------------
|-------------------------------------------------------- x4
|-0-0-0-0-3-0-0-0-3-0-5\3-1------------------------------
|--------------------------------------------------------


 LAST VERSE 


|--------------------------------------|--------------------------------
|--------------------------------------|--------------------------------
|--------------------------------------|--------------------------------
|-0-0----------------0-0---------------|-----0-0---------------------0-0
|--------------------------------------|--------------------------------



2nd INTERLUDE

|--------------------------------------------------------
|--------------------------------------------------------
|-------------------------------------------------------- x4
|-0-0-0-0-3-0-0-0-3-0-5\3-1------------------------------
|--------------------------------------------------------

There it is I hope you enjoyed it!
Comments