Dovetail Joint - Level On The Inside Chords & Tabs

 

Level On The Inside Chords & Tabs

Dovetail Joint Chords & Tabs

Version: 1 Type: Tab 0 ratings
1 star 2 stars 3 stars 4 stars 5 stars
comments

Level On The Inside Tab

   
Intro:    E|---5--5--0-0
          B|---5--5--0-2    
          G|--7--7--2-2    
          D|------------    
          A|------------    
          E|------------
Verse:    
E|------------------------------------------------    
B|------------------------------------------------    
G|------------------------------------------------    
D|--9-11--9-11--9-11--9-11--9-11--9-11-12-11-7-4-9    
A|--0--0--0--0--8--8--8--8--9--9--9--9-10-10-5-2-0    
E|------------------------------------------------
[ Tab from: http://www.guitartabs.cc/tabs/d/dovetail_joint/level_on_the_inside_tab.html ]
Chorus (part 1)    
E|--------------------------    
B|-0h2-0h2-0-0-0---2s3------    
G|-2---2---2-2-2-------4-4-4    
D|-2---2---3-3-3---5---4-4-4    
A|-0---0--------------------    
E|--------------------------    

Chorus (part 2)    
Asus2 E Db? D    
E|-------0--------    
B|--0----0--------    
G|--2----1---6---7    
D|--2----2---7---7    
A|--0----2---4---5    
E|-------0-------- 

THis is al close to right as i can get.....if you have any
corrections, send them to BIGICK72@aol.com       -ick
Comments