Doves - Words Chords & Tabs

 

Words Chords & Tabs

Doves Chords & Tabs

Version: 1 Type: Tab 0 ratings
1 star 2 stars 3 stars 4 stars 5 stars
comments

Words Tab

Doves – Words

Cappo 6

Intro and Verse
e--0---0---0---0-------------------------------0---0---0---0---|
B-3-2-3-2-3-2-3-2-3-0-3-0-3-0-23--23--23--23--3-2-3-2-3-2-3-2--|
G----2---2---2---2-2-0-2-0-2-0--2---2---2---2----2---2---2---2-|
D--------------------------------4---4---4---4-----------------|
A--------------------------------------------------------------|
E--------------------------------------------------------------|
 Inside...

Chorus
e-------------------------------------------------------------------|
B-3-2-0-----------------------------------3-2-0---------------------|
G-------2-------2-4-2-2-2-2-2-2-2-2-2-2-2-------2-2-2-2-2-2-2-2-2-2-|
D---------4-2-4-----------------------------------------------------|
A-------------------------------------------------------------------|
E-------------------------------------------------------------------|
 Words...

e-------------------------------------------------------------------|
B-----------------3-2-0-----------0---------------------------------|
G-4-4-4-4-4-4-4-4-------2-----------4-4-4-4-4-4-4-4-4-4-4-4-4-4-4-4-|
D-------------------------4-2-0-2-----------------------------------|
A-------------------------------------------------------------------|
E-------------------------------------------------------------------|
 Words...
[ Tab from: http://www.guitartabs.cc/tabs/d/doves/words_tab.html ]
e--------------------------------------------------------------------------|
B-3-2-0--------------------------------------------------------------------|
G-------2-0-----------------2-4r2-4r2-4r2-4r2-2-2-2-2-2-2-2-2-2-2-2-2-2-2--|
D-----------4-2-0-----0-2-4------------------------------------------------|
A-----------------2-4------------------------------------------------------|
E--------------------------------------------------------------------------|
 eyes...

e-------------------------------------------------------------------|
B-3-2-0-------------------------------------------------------------|
G-------2-----------2---2h4r2---2-2---------------------------------|
D---------4-2-0-2-4---4-------4-------------------------------------|
A-------------------------------------------------------------------|
E-------------------------------------------------------------------|
 Words...

Intro

Verse
Inside’s heart of summer soul
Don’t let them take it away
Cause inside something solid gold
So don’t let them throw it away

Chorus
Words they mean nothing, so you can’t hurt me
I said words they mean nothing, so you can’t stop me
I said your eyes, they say nothing, so you can’t hurt me (on summer days like these)
I said words they mean nothing, so you can’t hurt me

Replay Intro

Verse
Follow your own path from here
So don’t listen to what they say
cause inside you’ve a heart of gold
so don’t let them take this away

Chorus

Middle

Verse
Inside a heart of pure soul
A sun rising, and falling away, like your soul
Cause here comes something wonderful
So don’t let them throw it away

Chorus



Comments