Doves - Various Tracks Chords & Tabs

 

Various Tracks Chords & Tabs

Doves Chords & Tabs

Version: 1 Type: Tab 0 ratings
1 star 2 stars 3 stars 4 stars 5 stars
comments

Various Tracks Tab

Doves (Various songs)

This is my first attempt so don't believe everything as i put it, it's as i can remember it

*Catch The Sun*

e---------------------------------
B---------------------------------
G--------------7------------------
D-11-9-8-9-5-4-5-2----------------
A-9--9-9-9-2-4-5-2----------------
E-7--7-7-7-0-2-x-0----------------


That's the basic chord progression, figure out the rythem from the CD, it's pretty obvious.




*Lost Souls (Intro bit)*

e--------------------------------------------------------------------------------------------
B--------------------------------------------------------------------------------------------
G-4-4-4-4-4-5-4--------------------------------4-4-4-4-4-5-4---------------------------------
D---------------2-5-5-5-5-5-5-5-3-2-3-5-5-5-5-5--------------2-5h7-5h7-5h7-5h7-5-5-5-5-3-2-0-
A-------------------------------------------------------------------------------------------3
E--------------------------------------------------------------------------------------------

*Cedar Room*
[ Tab from: http://www.guitartabs.cc/tabs/d/doves/various_tracks_tab.html ]
e-------------------------------------------------------------------------------------------
B-13-13-13-13-13-13-13-13-12-12-12-12-15-15-15-15-------------------------------------------
G-------------------------------------------------12-12-12-12-12-12-12-12-------------------

then:

e-------------------------------------------------------------------------------------------
B-13-13-13-13-13-13-13-13-12-12-12-12-15-15/17-15-------------------------------------------
G-------------------------------------------------12-12-12-12-12-12-12-12h14----------------
D----------------------------------------------------------------------------14p12----------
A----------------------------------------------------------------------------------14p12----
E----------------------------------------------------------------------------------------12-

*The man who told everything/Reprise*

e-12-----12----12----12----12----12----11----11
B---14-----14----12----12----14----14----13----13
G------13----13----13----13----14----14----13----13

just repeat for ages

********************************************************************************************


That's it for now, i'll try and finish catch the sun when i can, and try to figure
out some other songs.


Any corrections/praise/doves worship/oasis worship to my email address:
Duane_darby@hotmail.com
Thanks
Comments