Doves - There Goes The Fear Chords & Tabs

 

There Goes The Fear Chords & Tabs

Doves Chords & Tabs

Version: 1 Type: Tab 0 ratings
1 star 2 stars 3 stars 4 stars 5 stars
comments

There Goes The Fear Tab

   
There Goes The Fear

Here's a rough guide to Doves fantastic new single

Tabbed by Matt McCarthy 

CAPO 3rd FRET-all tab relative to capo
Chords used:
	 EADGBe
D	(xx0232)
Em	(022000)
Em7	(020000)
G	(320033)
A	(x02220)
D/C#	(x4x232)
D/B	(x2x232)
D/A	(x0x232)
G/F#	(2x0033)
A/G	(3x2220)
A/F#	(2x2220)
A/E        (002220)
-----
MAIN RIFF
      D
e---2---------2---------2--------------------
B------3---3----3---3---3---3---0-2-3----
G--------2---------2-------2----------------   (listen to the recording to 
get an idea of timing)
D---------------------------------------------
A---------------------------------------------
E---------------------------------------------

Intro: main riff x2

Verse 1: main riff x4 then….

   Em
e---0---------------------------------------------------------------
B--0---------------------------------------------------------------
G--0---------------------------------------------------------------
D--2---4--2--0---------------------------------------------------
A--2-------------2------------------------------------------------
E--0-----------------5--3--2--0--2--3--2--0--2--3-------------
     Fear again…….

followed by the main riff x2
[ Tab from: http://www.guitartabs.cc/tabs/d/doves/there_goes_the_fear_tab.html ]
Verse 2 follows the same pattern (main riff x4) but then changes
at the Em to something similar to this, its not right but it fits in well
e---0--------------------------------------0-----------------------------------
B--0---------0-------0--------0----------0---------0--------0-------0------
G--0--0---0---0---0---0---0---0---0---0---0---0---0---0---0---0---0----
D--2----2--------2-------2--------2-----0-----0--------0-------0--------0-
A--2--------------------------------------2-----------------------------------
E--0---------------------------------------0----------------------------------

The song then goes into the bridge:

The notes of the chords below are picked but I haven't worked
these patterns out yet, (apart from a pull off from an Asus4 on the A/G)
the chords still sound good  when strummed

D           D/C#           D/B           D/A
Close     your          brown  eyes          and

G               G/F#           Em           Em7
lay  down  next     to     me                  Close    your

A           A/G           A/F#           A/E
eyes,             lay    down

		   D (strum once)
Cos there goes the fear….

           A (strum bass notes as song builds up to chorus)
Let it go

Chorus:
the chord progression is - Em  G  D  A
(the Em also sounds good as an Em7:022033)

That's all I have so far, its not spot on but it's a start!

Any comments or suggestions please mail me at macca_mcuk@hotmail.com

Cheers.
Comments